Tabs for He's a pirate frm pirates of d caribbean... fr beginners

Discussion in 'English Guitar Tabs - Submit or Request' started by sandyzze, Nov 12, 2011.

  1. sandyzze

    sandyzze New Member

    Hi guyz... im a beginner n i wanted to play this music frm my guitar... bt d tabs i found in net was lil bit complex... so i searched a lot n came up wid this whch is simple wen compared to oders especially to newbies lyk me!!!!! so pls check n do reply wid corrections(if any).....

    He's a pirate

    e------------------------------------------0--------------------------------------------------
    B---------------------0--0--0--2--3--3--3--------2--2--0--------0-------------------------
    G-------------0--3-----------------------------------------3--3-----------0--3--------------
    D---------------------------------------------------------------------------------------------
    A---------------------------------------------------------------------------------------------
    E---------------------------------------------------------------------------------------------

    e--------------------------0------------------------------------------0--0--0--2------------
    B--0--0---0--2--3---3---3-----2--2--0-----0---------------0--0--0--3--------------------
    G--------------------------------------3------------0--3-------------------------------------
    D--------------------------------------------------------------------------------------------
    A--------------------------------------------------------------------------------------------
    E--------------------------------------------------------------------------------------------

    e--3--3--2--0--2------------------0--2----------------------------------------------------0--
    B-----------------0--0--2---3--3---------0--3--2--2--3--0--2--------0--0--0--2--3--3--3-
    G--------------------------------------------------------------0--3---------------------------
    D---------------------------------------------------------------------------------------------
    A---------------------------------------------------------------------------------------------
    E---------------------------------------------------------------------------------------------

    e------------------------------------------------0-------------------------------------------
    B--2--2--0--------0---------0--0--0--2--3--3--3-----2--2--0-----0----------------------
    G-----------3--3------0--3-----------------------------------3----------0--3--------------
    D--------------------------------------------------------------------------------------------
    A--------------------------------------------------------------------------------------------
    E--------------------------------------------------------------------------------------------

    e--------------0--0--0--2---3--3--2--0--2------------------0--2---------------------------
    B--0--0--0--3------------------------------0--0--2---3--3--------0--3--2--0-----0--0--2-
    G----------------------------------------------------------------------------3----------------
    D---------------------------------------------------------------------------------------------
    A---------------------------------------------------------------------------------------------
    E---------------------------------------------------------------------------------------------

    e-----------0--2---------------------3----------------------------------2--2--2--3--2------
    B--3--3--3--------------3--0------------------3-----------0-----0--------------------------
    G-----------------------------------------------3------------3-------------------------------
    D--------------------------------------------------------------------------------------------
    A--------------------------------------------------------------------------------------------
    E--------------------------------------------------------------------------------------------

    e--0--0--0--0--2----2--2--2--3--2-----0----------------------0--2--0--------------------
    B----------------------------------------3--2--0----0--2--3-----------3--2----------------
    G--------------------------------------------------------------------------------------------
    D--------------------------------------------------------------------------------------------
    A--------------------------------------------------------------------------------------------
    E--------------------------------------------------------------------------------------------

    e-----0--2--0------0---2--0------------------------------------------------0-----0--------
    B--3------------3------------3--2--3--2---0----2-----0----0--2----3--2--3-----3--------
    G-------------------------------------------------3------------------------------------------
    D--------------------------------------------------------------------------------------------
    A--------------------------------------------------------------------------------------------
    E--------------------------------------------------------------------------------------------

    e--2--0-------------------0--2--3-----0-------0----------------2--3-----------------------
    B--------3--0---0--2---3-----------0------3-------2--0--2---------------------------------
    G----------------------------------------------------------3---------------------------------
    D--------------------------------------------------------------------------------------------
    A--------------------------------------------------------------------------------------------
    E--------------------------------------------------------------------------------------------

    e--2--2--2--2--0-----0-----------------------------2---------3---------2--2--5--2--0----
    B-----------------------3---2--3--2--2--0-------0---------0---------0---------------------
    G--------------------------------------------0---------0---------0--------------------------
    D--------------------------------------------------------------------------------------------
    A--------------------------------------------------------------------------------------------
    E--------------------------------------------------------------------------------------------

    e---------0----------------------------------------------------------------------------------
    B-----0----------0--3-------0---2--3--2--2--0---------------------------------------------
    G--0----------0----------0------------------------------------------------------------------
    D--------------------------------------------------------------------------------------------
    A--------------------------------------------------------------------------------------------
    E--------------------------------------------------------------------------------------------



    thnk u... its my 1st post...
     
  2. amanrockstaa

    amanrockstaa New Member

    How to post ??????????????????????
     
  3. sandyzze

    sandyzze New Member

    @amanrockstaa
    jus go to dis link "http://www.indianguitartabs.com/f7/"
    u can see "+Post New Thread", click it n post....
    Note:- u hav to go to d respectiv language forms(d link i ve given is english) to post as to mak it easy n systematic....
     
  4. Vader

    Vader New Member

    bah
    key wrong
    first two notes wrong
    could be bothered to read further(sorry but its sat :p)
    first note is fourth fret on D string second is second fret on G string
    substitue these notes everywhere
    I would play this with A as root note though
    (move whole pattern three frets right)
     
  5. sandyzze

    sandyzze New Member

    @vader
    oh??? if dats d case... thx fr d corrections!!!:-D
     
  6. Vader

    Vader New Member

    anytime :)
    oh yeh forget the moving three frets thing though
    cause you wanted an easier version
    but that would make you lose the benfit of the open strings....
     
  7. Vader

    Vader New Member

    you can move if you use a capo
     
  8. sandyzze

    sandyzze New Member

    ya k.... thx fr dat idea..... So as ur corrections d root string shud be shifted to D, is it????
     
  9. Vader

    Vader New Member

    Correcto
    but your root note isnt D

    do this only if you wanna sound like the best version(hemo's)

    Pirates of the Caribbean [Main Theme] by hemo - YouTube

    that start rhythm part would be alternate picking and muting on second fret A string if you are starting the song on D string fourth fret
     

Share This Page