Tabs for Ep - Kya Hota

Discussion in 'Pakistani Guitar Tabs - Submit or Request' started by entityp4ever, May 11, 2005.

  1. entityp4ever

    entityp4ever New Member

    Hey! Check out my tabs and post some reviews..BY the way ive heard alot of arguments about barzakh by Ep so i decided to tab em out....Just wait till monday hopefully theyll be posted along with solos and everything!

    Em:0220xx G:3200xx C:0320xx D:0002xx F:000000 A:002220

    E5:244xxx F5:000xxx G5:577xxx D5:799xxx


    Em G C D
    ----------------------------------------
    --------------------------0-------------
    --0--0----0--0--------0--------2--2-----
    ---2-------0---0-------2--------0--0----
    -2--2----2--2----2---3--3-----0--0--0---
    0-------3-----------0--------0----------

    Em G C D
    Hai qissa mera par kahani tumahari bhi hai

    Em G C D
    ----------------------------------------
    --------------------------0-------------
    --0--0----0--0--------0--------2--2-----
    ---2-------0---0-------2--------0--0----
    -2--2----2--2----2---3--3-----0--0--0---
    0-------3-----------0--------0----------

    Em G C D
    Hai such ki ghardi hai kadri wo asaan nahin hai

    ---------2-3-2-0------------3-5-3-2-0------------2-3-2-0-----
    -5-5-3-5---------3--5-5-3-5--------------5-5-3-5-------------
    4-4----------------4-4------------------4-4--------------2---X2
    -------------------------------------------------------------
    -------------------------------------------------------------
    -------------------------------------------------------------

    Light strum according to chords above

    Em G C D
    Tum ghum ho tum kis soch main bathay ho
    Em G C D
    Kuch bolo to sahiiiii
    Em G C D Em G C D
    Darna hai kis baat ka socho jo marna sab nay hai ek din
    Em G C D
    To yeeeeeh baat thi
    Em G C D
    Kabhi hi samaj na saki
    Em G C D
    Yahan bas is soch main
    Em G C D
    Tha main ghalat ya tha main sahiiiiiiii
    Em G C D
    Nahin dar koi
    Em G C D
    Nahin ab koi ghum
    Em G C D D
    Ab jhootay bharung ab tordaingay hum chordaingay

    ---------2-3-2-0------------3-5-3-2-0------------2-3-2-0-----
    -5-5-3-5---------3--5-5-3-5--------------5-5-3-5-------------
    4-4----------------4-4------------------4-4--------------2---X2
    -------------------------------------------------------------
    -------------------------------------------------------------
    -------------------------------------------------------------
    Hum

    Light strum
    Em G C D
    Karna hai to kya darna socho to
    Em G C D
    Dil main jab ho yaqeeeeen'
    Em G C D Em G C D
    Ghum hai tumko kis bat ka socho jo marna sab nay hai ek din

    Hard Strum
    Em G C D
    Nahin tum rukna nahin
    Em G C D
    Kabhi tum jhukna nahin
    Em G C D
    Yaqeen hai dil main agar
    Em G C D
    To zameen aasman kuch nahin
    Em G C D
    Nahin dar koi
    Em G C D
    Nahin ab koi ghum
    Em G C D D
    Ab jhootay bharung ab tordaingay hum chordaingay

    Music

    Em Em Em F F F A A A
    AAAAAAAAAAAA
    F F F A A A

    F--------
    Kya hota
    A-------------------F
    Jo keh bhi diya hota
    F--------A---------F
    Jo main keh na saka
    F--------A---------------F
    Jo main khud say juda hota
    Slow Strum:
    A F
    Maut apni jeeya hota
    A F
    Maut apni jeeya hota
    A F
    Maut apni jeeya hota
    A F C D (Play C & D as whole chords)
    Maut apni jeeya hotaaaaaaaaa (Rise in pitch)
    Em
    Kya hota
    G C D
    Jo keh bhi diya hota wo such jo main keh na saka
    Em
    Kya hota
    G C D
    jo main khud say juda hota kash kay main maut apni jiya
    E5 F5 E5 F5 E5 F5 E5 F5 E5 F5
    hotaaaaaaaaaaaaaoooooooooooooooaaaaaaaa
    E5 F5
    Nahin dar koi
    E5 F5
    Nahin ab koi ghum
    E5 F5 G5sD5 G5sD5
    Ab jhootay bharung ab tordaingay hum chordaingay
    E5 F5 E5 F5
    Wo lahu sifar tu cheeeer dalay nazar
    E5 F5 E5
    Dekhain kab talak sehpaao gay tum...
    Hard strum:
    E5 E5 E5 F5 F5 F5
    reh jaaogay tum
    G5 G5 G5 D5 D5 D5 E5 E5 E5 F5 F5 F5
    seh na paao gay tum
    G5 G5 D5 D5 E5 E5 F5 F5
    Is say aagay kabhi
    G5 G5 D5 D5 E5 E5 F5 F5
    Dek paao gay tum nahin
    G5 G5 D5 D5
    Kabhi nahi

    E5 E5 F5 F5 G5 G5 D5 D5 X2 :rule:
     
  2. syed_420

    syed_420 New Member

    loookin goood!!
     
  3. BIG_EVIL

    BIG_EVIL Guitaring Machine

    will try ...................looks nice
     
  4. grimreeper_007

    grimreeper_007 New Member

    Man They Rock
     
  5. nadish

    nadish Active Member

    I'll try them tomorrow...
     
  6. Ozze

    Ozze New Member

    loookin decent lets see wot my guitar say abt it ..
    :)
     
  7. J.J

    J.J The Guitar God

    hmm good work...
     
  8. Lahori_rocker

    Lahori_rocker Guitar God left IGT

    good work.................keep it up
     
  9. Lahori_rocker

    Lahori_rocker Guitar God left IGT

    nd wat abt hamesha???
     
  10. Quadrophenia

    Quadrophenia New Member

    errr... F= 000000? since when? F = 133211

    E5 = x799xx
    G5 = 355xxx
    D5 = x799xx


    E5:244xxx = F#5
    G5:577xxx = A5
    D5:799xxx = B5

    Top line with numbers = fret numbers.
    Second line is the E- String.
    ------1--2----3--4----5---6---7--8--9---10-11--12-------------------------------
    E ---F--F#--G--G#--A--Bb--B--C--C#--D--Eb--E------------

    The notes repeat themselves on different strings in the SAME ORDER
    So for the A string it will be

    1 2 3
    A --Bb-B--C-------- etc etc...
    Good luck posting the correct tabs is hard enough but posting ''rong'' tabs is even worse ....espiciallywhen u can play it correctly ;)
    nice work.
     
  11. xplosive

    xplosive New Member

    hey man, it ROCKED...thanx
     
  12. m_waleed86

    m_waleed86 KhaMosh GhuStAk

    yup ...good work
     
  13. Ali Akber

    Ali Akber New Member

    hey guys! can some1 telme wher i can download this song?
     
  14. drsherry

    drsherry Guitarist [SEER]

  15. kl12

    kl12 (Ghost Note)

    entityp4ever posted his/her stuff way back in 2005(look at his thread posting date) and you posted the same stuff this year..
    so we now know who copy pasted and who not !!!!!!!!!
    regards
     

Share This Page