Tabs: Don't Wanna Miss a Thing - Aerosmith

Discussion in 'English Guitar Tabs - Submit or Request' started by mudgalbharat, Aug 21, 2004.

  1. mudgalbharat

    mudgalbharat Silence Must be Heard

    One of my all time fav...mostly for the lyrics..here it goes


    ---------------------------------------2-------0---------------------
    ---------------------------0--------------3-------3------------3--3--
    ----------------2-2------2----------2--------------------------------
    ----------------------4----------4-----------------------------------
    ---------------------------------------------------------------------
    ---------------------------------------------------------------------



    ---------------------------------------------------------
    ---0------------------3--3--0-----------------0----------
    ------2--2-0---2--2---------------2-2---0--2-------2-2---
    -------------------------------------------------------4-
    ---------------------------------------------------------
    ---------------------------------------------------------



    ------------------2-----0-------------------------------------------------
    ------0---------------3--------3-----------3--3----0--------------0-------
    ----2----------2--------------------------------------2--2-2---2--------2-
    ------------4-------------------------------------------------------------
    --------------------------------------------------------------------------
    --------------------------------------------------------------------------



    -----------------------0---0-------2----------0-2----2---0-0------------
    ------0----------0-2-3------------------3-0-3---------------------------
    --2-0---------------------------2---------------------------------------
    ------------------------------------------------------------------------
    ------------------------------------------------------------------------
    ------------------------------------------------------------------------



    ------2-2-2-2---0-0-----------0-0-0-5---3-2--0----
    -----------------------------------------------3--
    --------------------------------------------------
    --------------------------------------------------
    --------------------------------------------------
    --------------------------------------------------



    --0-------------2--0-------0----------2-2-2-2-2--0-0-----
    -----0-3-0----0------3-3--------3------------------------
    ------------2------------2----------2--------------------
    ---------------------------------------------------------
    ---------------------------------------------------------
    ---------------------------------------------------------



    ----0--0-0-0-0-5--3-2-0--2-0-----------------2--0-------0----
    -------------------------------3--0-3-0----0------3-3------3-
    ----------------------------------------2-------------2------
    -------------------------------------------------------------
    -------------------------------------------------------------
    -------------------------------------------------------------

    Will post further tabs later.

    regards
     

Share This Page