Tabs & chords of all the jal songs

Discussion in 'Pakistani Guitar Tabs - Submit or Request' started by danii, Aug 30, 2005.

  1. danii

    danii New Member

    Orange Guitar, lahori, nadish or umar boy can any one of u people send the tabs & chords of all the jal songs.I've checked the forum & dowloaded many scraps but most of these are wrong & working on them is really frustrating. The reason i am asking u people is that i can trust ur tabs & work on them without any worry. Instead of writing tabs u can give me the thread # from where i can download the correct tabs. I am a beginner & really in need of ur help !!!. Kindly help me otherwise mai rawal dam mai jump ker doon ga. I'll be obliged. Waiting for ur response Danish
     
  2. Quadrophenia

    Quadrophenia New Member

    since this forum is only for orange guitar, lahori, nadish, umar boy..i wont post the correct tabs i have ;)
    only kidding..
    here... not by me its by orange guitar ;)
    ====================================================================

    Tabbed By : Orange Guitar

    Original Song By: Jal The Band

    =====================================================================

    (Now here is the full version of "Aadat". It is on standard tuning)

    =====================================================================

    Here goes the intro :

    This is the first arpeggio which is played by pick.

    e|-------------------------------------------------------------------|
    B|----------4------4------4------4-----------------------------------|
    G|-----6------6------6------6------6---------------------------------|
    D|---6---6------6------6------6------6-------------------------------|
    A|-4-----------------------------------------------------------------|
    E|-------------------------------------------------------------------|

    Now the second arpeggio comes in after arpeggio 1.

    e|-------------------------------------------------------------------|
    B|----------4------4------4------4-----------------------------------|
    G|-----6------6------6------6------6---------------------------------|
    D|---7---7------7------7------7------7-------------------------------|
    A|-4-----------------------------------------------------------------|
    E|-------------------------------------------------------------------|

    Listen to the song to figure out the pattern.

    ======================================================================

    Now here goes the strumming after the intro. " ; " indicates
    that this part should be repeated.

    e|------4---------4---------;--4---------4--------;------------------|
    B|------4---------5---------;--4---------5--------;------------------|
    G|------6--(2x)---6---(2x)--;--6--(2x)---6--(2x)--;------------------|
    D|------6---------6---------;--7---------7--------;------------------|
    A|------4---------4---------;--4---------4--------;------------------|
    E|-------------------------------------------------------------------|

    ======================================================================

    During strumming lead guitar plays this.

    e|----------0--------------------0-----------------0----------0------|
    B|-2--0--2-----2--0-----2--0--2-----2--0------0-------0-------0------|
    G|------------------------------------------2---2--------2----2------|
    D|-------------------------------------------------------------------|
    A|-------------------------------------------------------------------|
    E|-------------------------------------------------------------------|


    Strumming given above carries on till this part ends.

    ======================================================================

    Then the rythem guitar plays this with chorus.
    (Figure out the timing by yourself)

    e|------4-----2-----0-----2-----;-;-;---------------------------------|
    B|------5-----4-----2-----4-----;-;-;---------------------------------|
    G|------6-----4-----2-----4-----;-;-;---------------------------------|
    D|------6-----4-----2-----4-----;-;-;---------------------------------|
    A|------4-----2-----0-----2-----;-;-;---------------------------------|
    E|-------------------------------------------------------------------|

    ======================================================================

    The lead guitar solo.

    e|-------4----7--4--------4----7--4----------2------4------5---------|
    B|---5-----5----------5-----5------------2-----2------2------2-------|
    G|-6---6------------6---6--------------2---2-----2------2------2-----|
    D|-------------------------------------------------------------------|
    A|-------------------------------------------------------------------|
    E|-------------------------------------------------------------------|

    e|-------4----7--4--------4----7--4----------2-------2---------------|
    B|---5-----5----------5-----5------------2-----------2---------------|
    G|-6---6------------6---6--------------2---2----2----2---------------|
    D|-------------------------------------------------------------------|
    A|-------------------------------------------------------------------|
    E|-------------------------------------------------------------------|

    Behind the solo, acoustic strumming carries on.

    ======================================================================

    Now again the same rythem part continues.

    ======================================================================

    Here is the famous solo.

    e|--4-5-4-4-4----4---------------------------------------------------|
    B|--------------------7—5-4-4-4---4-5-4-2-5---5h7p5-4----------------|

    e|--4-5-4-4-7-9-7-9s11-9—7-7---7—5h7-5—4p2-2-------------------------|

    ======================================================================

    During the solo, acoustic guitar plays these pluck strums.

    e|---------4-------------2-------------0-------------2----------;----|
    b|-----5---5---------4---4---------2---2---------4---4----------;----|
    g|---6-----6-------4-----4-------2-----2-------4-----4----------;----|
    d|-6-------6-----4-------4-----2-------2-----4-------4----------;----|
    a|---------4-------------2-------------0-------------2----------;----|
    e|-------------------------------------------------------------------|

    ======================================================================

    Between the "Aaaaa Aaaa aaaa" part, lead guitar plays these power
    chords fastly.

    e|-------------------------------------------------------------------|
    b|-------------------------------------------------------------------|
    g|-6------------2------------4---------------------------------------|
    D|-6--(many x)- 2--(many x)--4--(many x)-----------------------------|
    a|-4------------0------------2---------------------------------------|
    e|-------------------------------------------------------------------|

    Rythem guitar also contiues its chords.

    ======================================================================


    Now some "Aaaaaa Aaaaaa Aaaaa" with rythem chords.

    ======================================================================

    The ending is like this.

    e|---------4-------------2-------------0-------------2---------------|
    b|-----5---5---------4---4---------2---2---------4---4---------------|
    g|---6-----6-------4-----4-------2-----2-------4-----4---------------|
    d|-6-------------4-------------2-------------4-----------------------|
    a|-------------------------------------------------------------------|
    e|-------------------------------------------------------------------|

    ======================================================================
     
  3. Lahori_rocker

    Lahori_rocker Guitar God left IGT

    Aik din aye ga by JAl
    intro:

    E----------0-----------0----------------- -----|
    B---------0--0------------0--------------- ---|
    G-------9-----9--------9---9-------------- ---|
    D-----9--------------9-------------------- ---|
    A---7------------------------------------- ---|
    E-0--------------9------------------------ ---|
    |
    ========= x 2
    E----------0-------------0--------------- ----|
    B---------0---0------------0-------------- ---|
    G-------2-------2------------4------------ ---|
    D-----2----------------4-------4---------- ---|
    A---0----------------0-------------------- ---|
    E-0----------------0---------------------- ----|


    E----------------------------------------|
    B----------------------------------------|
    G-------5-4-4-5-4-4-5-4-4-5-4------------|
    D-----5----------------------------------|
    A---0------------------------------------|
    E-5--------------------------------------|

    NOW THE SONG COMES IN:

    E----------0-----------0-------------------|
    B---------0--0------------0----------------|
    G-------9-----9--------9---9---------------|
    D-----9--------------9---------------------|
    A---7--------------------------------------|
    E-0--------------9-------------------------|
    Teri Annkhein

    E----------0-------------0-----------------|
    B---------0---0------------0---------------|
    G-------2-------2------------4-------------|
    D-----2----------------4-------4-----------|
    A---0----------------0---------------------|
    E-0----------------0-----------------------|
    abb houn gi na kabhi Num

    E----------0-----------0-------------------|
    B---------0--0------------0----------------|
    G-------9-----9--------9---9---------------|
    D-----9--------------9---------------------|
    A---7--------------------------------------|
    E-0--------------9-------------------------|
    Tu jo Dekh le

    E----------0-------------0-----------------|
    B---------0---0------------0---------------|
    G-------2-------2------------4-------------|
    D-----2----------------4-------4-----------|
    A---0----------------0---------------------|
    E-0----------------0-----------------------|
    Tu bhula doun mein Sare Ghum

    E----------0-----------0-------------------|
    B---------0--0------------0----------------|
    G-------9-----9--------9---9---------------|
    D-----9--------------9---------------------|
    A---7--------------------------------------|
    E-0--------------9-------------------------|
    Tu jo chahey tu

    E----------0-------------0-----------------|
    B---------0---0------------0---------------|
    G-------2-------2------------4-------------|
    D-----2----------------4-------4-----------|
    A---0----------------0---------------------|
    E-0----------------0-----------------------|
    Badle ga Mosam


    E----------------------------------------|
    B----------------------------------------|
    G-------5-4-4-5-4-4-5-4-4-5-4------------|
    D-----5----------------------------------|
    A---0------------------------------------|
    E-5--------------------------------------|


    E----------0-----------0------------------|
    B---------0--0------------0---------------|
    G-------9-----9--------9---9--------------|
    D-----9--------------9--------------------|
    A---7-------------------------------------|
    E-0--------------9------------------------|
    yea jo pal hain

    E----------0-------------0-----------------|
    B---------0---0------------0---------------|
    G-------2-------2------------4-------------|
    D-----2----------------4-------4-----------|
    A---0----------------0---------------------|
    E-0----------------0-----------------------|
    inhein khushiyoun se bher lo tum


    E----------0-----------0-------------------|
    B---------0--0------------0----------------|
    G-------9-----9--------9---9---------------|
    D-----9--------------9---------------------|
    A---7--------------------------------------|
    E-0--------------9-------------------------|
    wo beete din

    E----------0-------------0-----------------|
    B---------0---0------------0---------------|
    G-------2-------2------------4-------------|
    D-----2----------------4-------4-----------|
    A---0----------------0---------------------|
    E-0----------------0-----------------------|
    unhein yaad phir se ker lo tum


    E----------0-----------0-------------------|
    B---------0--0------------0----------------|
    G-------9-----9--------9---9---------------|
    D-----9--------------9---------------------|
    A---7--------------------------------------|
    E-0--------------9-------------------------|
    Tu jo chahey tu

    E----------0-------------0-----------------|
    B---------0---0------------0---------------|
    G-------2-------2------------4-------------|
    D-----2----------------4-------4-----------|
    A---0----------------0---------------------|
    E-0----------------0-----------------------|
    Badle ga Mosam


    E----------------------------------------|
    B----------------------------------------|
    G-------5-4-4-5-4-4-5-4-4-5-4------------|
    D-----5----------------------------------|
    A---0------------------------------------|
    E-5--------------------------------------|

    E-------------------------------------------|
    B-------------------------------------------|
    G-9--9-9-9----------------------------------|
    D-9--9-9-9----------------------------------|
    A-7--7-7-7----------------------------------|
    E-------------------------------------------|
    yea dil tu rona nahin

    E-------------------------------------------|
    B-------------------------------------------|
    G-9-9-9--9----------------------------------|
    D-9-9-9--9----------------------------------|
    A-x-x-x--x----------------------------------|
    E-9-9-9--9----------------------------------|
    yea khuwab adhore nahin

    E-------------------------------------------|
    B-------------------------------------------|
    G-9--9-9-9----------------------------------|
    D-9--9-9-9----------------------------------|
    A-7--7-7-7----------------------------------|
    E-------------------------------------------|
    yea arman sare tere


    E-------------------------------------------|
    B-------------------------------------------|
    G-9-9-9--9----------------------------------|
    D-9-9-9--9----------------------------------|
    A-x-x-x--x----------------------------------|
    E-9-9-9--9----------------------------------|
    houn gey pore kabhi


    Ex-x-x--x-----------------------------------|
    B-x-x-x--x----------------------------------|
    G-2-2-2--2----------------------------------|
    D-2-2-2--2----------------------------------|
    A-x-x-x--x----------------------------------|
    E-x-x-x--x----------------------------------|
    aik din aaye ga

    E-------------------------------------------|
    B-------------------------------------------|
    G-4-4-4--4----------------------------------|
    D-4-4-4--4----------------------------------|
    A-2-2-2--2----------------------------------|
    E-x-x-x--x----------------------------------|
    tu youn gaye ga

    E-------------------------------------------|
    B-------------------------------------------|
    G-9--9-9-9----------------------------------|
    D-9--9-9-9----------------------------------|
    A-7--7-7-7----------------------------------|
    E-------------------------------------------|
    ho ho hooo

    E-------------------------------------------|
    B-------------------------------------------|
    G-9-9-9--9----------------------------------|
    D-9-9-9--9----------------------------------|
    A-x-x-x--x----------------------------------|
    E-9-9-9--9----------------------------------|
    ho ho hoooo


    E-------------------------------------------|
    B-------------------------------------------|
    G-9--9-9-9----------------------------------|
    D-9--9-9-9----------------------------------|
    A-7--7-7-7----------------------------------|
    E-------------------------------------------|
    ho ho hoooo

    E-------------------------------------------|
    B-------------------------------------------|
    G-9-9-9--9----------------------------------|
    D-9-9-9--9----------------------------------|
    A-x-x-x--x----------------------------------|
    E-9-9-9--9----------------------------------|
    ho ho hoooo
     
  4. Lahori_rocker

    Lahori_rocker Guitar God left IGT

    woh lamhe by JAl

    G#m F#
    Wo lumhey Wo ratein koi na Jane
    E
    thi kaisey batein wo bersatein
    F#
    wo bhegie bhegie yadein
    E
    wo bhegie bhegie yadein

    G#m F# E F#

    G#m F#
    Na mein Janu Na tu Jane
    E
    kaisa hai yea alum
    F#
    koi na jane
    G#m
    phir kyon hai yea tanhaeee
    F#
    kaisi hai yea ruSwaieee
    E
    ghum ho gaye kyonnn
    F#
    kho gey hummmm


    G#m F# E F# [WITH MUTES]


    G#m F#
    sager ki in lerroun se kehra hai mera mun
    E F#
    sehrahoun ki in hawaoun mein kaisey aaye gi bahar
    G#m
    phir kyon hai yea tunhaiee
    F#
    kaisi hai yea ruswaye
    E
    ghum ho gaye kyon
    G#m
    khoo gaye hum


    G#m F#
    Wo lumhey Wo ratein koi na Jane
    E
    thi kaisey batein wo bersatein
    F#
    wo bhegie bhegie yadein
    E
    wo bhegie bhegie yadein


    G#m F# E F#

    G#m
    andhie ho ya tufan ho
    F#
    mere mun mein rahe tu sada
    G#m
    koi apna ho ya paraya ho
    F#
    usey dhoundoun mein kahan
    G#m
    phir kyon hai yea tunhaye
    F#
    kaisi hai yea ruswaye
    E
    ghum ho gaye kyon
    F#
    kho geye hum Ooooooooooooooooooooo



    G#m F#
    Wo lumhey Wo ratein koi na Jane
    E
    thi kaisey batein wo bersatein
    F#
    wo bhegie bhegie yadein
    E
    wo bhegie bhegie yadein
     
  5. Lahori_rocker

    Lahori_rocker Guitar God left IGT

    yaar abhi zara time nahi baki baad mai ker looon ga
     
  6. Orange Guitar

    Orange Guitar IGT's ALLROUNDER

    _________________________________________________________________

    --------------------------
    | TABBED BY ORANGE GUITAR | BIKhRA HON MAIN BY JAL
    -------------------------
    _________________________________________________________________

    Here is the intro!

    |---------------0---------------------------|
    |-----------------0-------------------------|
    |----------6--------6-----------------------|
    |--------6----6-----------------------------|
    |------4------------------------------------|
    |-------------------------------------------|


    Repeat the same pattern of arpegio on chords (024400) and (002200) with the lyrics given below....adjust timing yourself

    ______________________________________

    Mana bikhra hoon main abhi
    Main nay khawaab peroay thay
    Teree saansoon main gum hoon abhi
    Mairee chahat adhoore hay
    ______________________________________


    This is the fast acoustic part...it is original !!!!


    |-------------------------------------------|
    |-------4s5-5-5-5-5-4-5-5-7-4-4-------------|
    |-------------------------------------------|
    |-------------------------------------------| x4
    |-------------------------------------------|
    |-------------------------------------------|

    _________________________________________________________________

    Then the electric guitar plays this:

    |--x-x-x-|
    |--x-x-x-|
    |--9-7-9-|continue strumming with mutes (he also repeats this part...listen to song)
    |--x-x-x-|
    |--x-x-x-|
    |--x-x-x-|

    |--x-x-x--|
    |--x-x-x--|
    |--9-7-11-|continue strumming (resumes to 11-9-7 and repeats sometimes)
    |--x-x-x--|
    |--x-x-x--|
    |--x-x-x--|

    _________________________________________________________________

    Addat solo is now played with distortion!


    |---4-5-4-4-4----------------------------------|
    |---------------7-5-4-4-4--4-5-4-2-5-5-5s7s5-4-|
    |----------------------------------------------|
    |----------------------------------------------|
    |----------------------------------------------|
    |----------------------------------------------|


    play this part faster
    |--4-5-4-4--7-9-7-9s11-9s7-7-7-7s5-5h7-5-4-4h5p4-0-------------------------|
    |----------------------------------------------------4-5-4-----------------|
    |----------------------------------------------------------6-4-6-----------|
    |-----------------------------------------------------------------4-6------|
    |--------------------------------------------------------------------------|
    |--------------------------------------------------------------------------|

    _________________________________________________________________

    Strumming:

    c#m---------------------B-----------------------------A-------B
    mushkilain jab bhee a jaye gee dard had say guzar jayee gaaa

    Play other lines with similar pattern

    _________________________________________________________________

    Power Chords here!!!

    (x466xx)---------------(x244xx)------------(x022xx)------(x244x)
    Ab to Aadat see hay mugh ko aisay jeenay main

    Aadat Strumming (Strange thing...aadat strumming is same as of Lamhay....as I have already posted a sound file in the forum)

    _________________________________________________________________

    Shuffle these chords fastly with aaaaaaaa.... part:

    (x466xx),(x4665x) (2x), then (x022xx),(x244xx) ...adjust timing yourself!
    [fast switching]
    _________________________________________________________________

    Play aadat intro with these chords : (x46644),(x46654),(x47644),(x47654)

    Play some power chords are played which are given above.
    _________________________________________________________________

    The song ends with aadat's outro...just a slight variation with arpeggios (actually he repeats the arpeggio).....he just dont plucks the last three strings at one time....pluck them one by one....chords are same as I have given in Aadat's version.
    _________________________________________________________________

    : SUGGESTION AND COMMENTS ARE WELCOME AT MY EMAIL ADDRESS : ghanchu@hotmail.com
    _________________________________________________________________
     
  7. danii

    danii New Member

    thanks 4 the boost up

    I was't epetig that much support from IGT anyway thanks uddies
     
  8. Ozze

    Ozze New Member

    JAL
    tari yaad


    guys make me asure by playing the startin solo weather it is right or not
    coz i,m confused .. n if any one has come up with smthg better post here
    0--3--5--7--7s8--7s5--7--5--3--5--3--2--0--10s12--10-7-5-7-5-7-
    ---------------------------------------------------------------
    ---------------------------------------------------------------
    ---------------------------------------------------------------
    ---------------------------------------------------------------
    ---------------------------------------------------------------

    7-5s8-5-3-2-0--3--5s7--7-5-7-5--3h5h7--7-5-3-2h3h2-2-0---------
    ---------------------------------------------------------------
    ---------------------------------------------------------------
    ---------------------------------------------------------------
    ---------------------------------------------------------------
    ---------------------------------------------------------------

    -----12-12s8-8-8-10-8-7-7h8-5-3-2-0-0-0-2-3s10-----------------
    --12-----------------------------------------------------------
    ---------------------------------------------------------------X2
    ---------------------------------------------------------------
    ---------------------------------------------------------------
    ---------------------------------------------------------------

    -7-8-8h10-8-7---------7-5-7--10-8-7-8-----------------------X4
    --------------8-7---5---------------------------------------
    -----------------------------------------------------------
    -----------------------------------------------------------
    -----------------------------------------------------------
    -----------------------------------------------------------


    Em
    Teri Yaad
    C
    Aye jab mujhko
    Am
    Mein laut aaounga
    Em
    Woh bheegi raat
    C
    Aur baarish boondain
    Am
    Mein bheeg jaaoungaa
    Em
    Wohooohohohohoho

    -----12-12s8-8-8-10-8-7-7h8-5-3-2-0-0-0-2-3s10-----------------
    --12-----------------------------------------------------------
    ---------------------------------------------------------------X2
    ---------------------------------------------------------------
    ---------------------------------------------------------------
    ---------------------------------------------------------------
    C
    Faasalaay
    Am Em
    Simat na sakay
    C Am Em
    Raastay jo mit na sakay
    C Am Em
    In faaslon ko simtna hai
    Am
    In raaston pay
    Em
    Chalna hay
    Em
    Yeh dil ki baat
    C
    Koi jaaney na jaaney
    Am
    Mein keh jaoun gaa
    Em
    Woh terey saath
    C
    Guzaray lamhey
    Am
    Na toofan hoon ga
    Em C
    Hooohohohohohohoho

    -0---2-3--2--0-----------------------------------------15--14--10-8-7h8-7-----------------
    ---------------------------------------7h8--12--10--12------------------------------------
    ----------------2--4--5-5--4--4s5-4-0-----------------------------------------------------
    ------------------------------------------------------------------------------------------
    ------------------------------------------------------------------------------------------
    ------------------------------------------------------------------------------------------

    7h8-7-5-3h5-3--2--0-----------------------------------------------------------------------
    ---------------------3-5------------------------------------------------------------------
    ------------------------------------------------------------------------------------------
    -------------------------------------------------------------10-10-9-9-7-10-10-9-9-7------
    --------------------------7-7-9-9-9s10s-12--7-7-9-9-9s10s-12------------------------------
    ------------------------------------------------------------------------------------------

    ------------------------------------------------------------------------------------------
    ------------------------------------------------------------------------------------------
    ------------------------------------------------------------------------------------------
    ---------------------------------------10-10-9-9-7--4h5-4-2-0-2---------------------------
    --7-7-9-9-9s10s-12--7-7-9-9-9s10s-12------------------------------------------------------
    ------------------------------------------------------------------------------------------

    Em
    Jo sapnay
    C
    sajaye milke
    Am
    Khushi ke pal
    Em
    beetaye milke
    C Am
    Kya paaya main nai
    Em
    Kya khoya
    C Am
    Kab jaaga hoon main
    Em
    Kab sooya
    Em
    Teri har baat
    C
    Rulaye jab mujhko
    Am
    Mein kho jaoonga
    Em
    Woh teri chaa
    C
    Sataye jab mujhko
    Am
    Mein doob jaoonga
    Em C Am
    Hoho......
     
  9. nadish

    nadish Active Member

    NOT TABBED BY ME


    " INTRO "

    e|-------3---2-----5\3----------3p2---2------7-----------------------|
    b|-----3-------3-------3------3-----3---3----7-------------|Guitar 1-|
    g|---0-----0-----0----------0-------------0--0-----------------------|
    d|-------------------------------------------0-----------------------|
    a|-------------------------------------------------------------------|
    e|-3---------------------3-------------------------------------------|

    e|-------------------------15--15------------------------|Guitar 2
    b|-----------------------15--15--------------------------|

    e|-----3---2-----5\3-------3\2---2-----3-3---------------------------|
    b|-----------3-------3---------3---3-----------------------|Guitar 1-|
    g|---0---0-----0---------0-----------0-------------------------------|
    d|-------------------------------------------------------------------|
    a|-3-------------------3---------------------------------------------|
    e|-------------------------------------------------------------------|

    e|--15--15---------------15--15-------17-17--------------|Guitar 2-|
    b|15--15---------------15--15--------------------------------------|

    e|-------3\2---2-----5\3----------3\2---2-------7------------------|
    b|-----3-----3---3-------3------3-----3---3-----7--------|Guitar 1-|
    g|---0-------------0----------0-------------0---0------------------|
    d|----------------------------------------------0------------------|
    a|-----------------------------------------------------------------|
    e|-3------------------------3--------------------------------------|

    e|------7--------7h8-7p5----------7---------7------------|Guiatr 2
    b|-------------------------------------------------------|

    e|-------3\2---2-----5\3----------3\2---2-----3/7--------------------|
    b|-----------3---3-------3------------3---3----------------|Guiatr 1-|
    g|---0-------------0----------0-------------0------------------------|
    d|-------------------------------------------------------------------|
    a|-3------------------------3----------------------------------------|
    e|-------------------------------------------------------------------|

    e|--------7-------7h8-7p5----------7-10--7---------------|Guitar 2
    b|-------------------------------------10----------------|

    e|-----7---5-----5h7-7-----7/8---5-5-7/8---5----------------------|
    b|---7---7---7-----------7-----7---------7---7\3------------------|
    g|----------------------------------------------------------------|
    d|----------------------------------------------------------------|
    a|-7-----------7-------7------------------------------------------|
    e|----------------------------------------------------------------|


    e|-----0---2---3-2------------3\2---2-----3------3--------------|
    b|---3---3---3-----3---3----------3---3------3---3--------------|
    g|--------------------------0-----------0--------0--------------|
    d|-----------------------------------------------0--------------|
    a|-3-----------------3----3----------------------2--------------|
    e|-----------------------------------------------3--------------|


    "CHORDS"

    Intro Play G C D Chords then

    Play G couple of times with muted G chord


    G C
    Ankhoon say jub bhi ho teri aankhein juda

    G C D
    mun say jub bhi ho tera man khafa

    Bm D C
    tau ji pukare, pukare tujhe

    Bm C G
    man ghabraye a a a bulaye tujhe

    Chorus:

    G D C
    k dil harey pukare tujheeey

    G C D
    mun ja re manale mujhey

    G D C
    sunta re lagale galay

    G Bm D G
    koh ja re tu gaa lay sub re


    G C
    tere bina zindagi laagey saza

    G C D
    tera saath ho yeh saza laagay jaza

    Bm D C
    tau barte jaye tau rastey saare

    Bm C G
    duniya peechay tau hum hai aagay

    G D C
    k dil harey pukare tujheeey

    G C D
    mun ja re manale mujhey

    G D C
    sunta re lagale galay

    G Bm D G
    koh ja re tu gaa lay sub re

    "NOW COMES THE SOLO"

    e|-------------------------------------------------------|
    b|-------------------------------------------------------|
    g|-7-7-5-4---4-7-7-5-4-5p4-4-4-4-5p4-4-4-4-5-4-5-4-4----4|
    d|---------7-----------------------------------------7-7-|
    a|-------------------------------------------------------|
    e|-------------------------------------------------------|


    e|-------------------------------------------5/7-8-7-5-7-|
    b|---------------------------------------8-7-------------|
    g|---------4-----4-----7-5-4------4----------------------|
    d|-7-5-5h7---7-7---7-5-------7-7-----7-5-----------------|
    a|-------------------------------------------------------|
    e|-------------------------------------------------------|


    e|-8-8/7-7-7-7\5-5-5-5\3-3-3-10-10-10\8-8-8\7-7-7\5-5-5--|
    b|-------------------------------------------------------|
    g|-------------------------------------------------------|
    d|-------------------------------------------------------|
    a|-------------------------------------------------------|
    e|-------------------------------------------------------|


    e|-8-7-5-------------------------------------5-7-8-7-----|
    b|-------7-5h7-5-5\3-3\1-3---------------5-7---------8-7-|
    g|---------------------------5-4-5p4-5-4-----------------|
    d|-------------------------------------------------------|
    a|-------------------------------------------------------|
    e|-------------------------------------------------------|


    e|----------------------------------------------12-10-8-7|
    b|-5-----------------------------------------------------|
    g|----5-4-4h5p4-------------------------5-----7----------|
    d|--------------5-7-5--------------5--7---7-5------------|
    a|--------------------7-5--7-5-5h7-----------------------|
    e|-------------------------------------------------------|


    e|-5-3---------------------------------------------------|
    b|-------------------------------------------------------|
    g|-------------------------------------------------------|
    d|-------------------------------------------------------|
    a|-------------------------------------------------------|
    e|-------------------------------------------------------|

    daniyal100@hotmail.com
     
  10. nadish

    nadish Active Member

    PANCHI

    NOT TABBED BY ME, ALL CREDITS TO SHAMSHER KHAN WHO HAS WORKED HARD TO TAB THIS SONG OUT

    Intro:

    e--5-5-7-8-8-5-5-5s12-10-8-7-3-3-1-3-3-3-0- (x2)

    Panchi hoon.............hawaon say larney do...
    (C)
    e----------------------------|
    B----0-------------0---0-----|
    G------5---5----5---5--------|
    D--------5----5--------------|
    A--3-------------------------|
    E----------------------------|


    e--5-5-7-8-8-5-5-5s12-10-8-7-3-3-1-3-3-3-0- (x2)


    Rastey galiyaan..........wadey tor chala
    (E)
    e-----------------------------|
    B-----------------------------|
    G--------9-----9-----9--------|
    D----7-------7----7-----------|
    A--0-------0------------------|
    E-----------------------------|

    yeh raat abhi............ yeh baat abhi badal jayegee
    (Dm) (Am)
    e-------------------------------------------------------|
    B-------6---------6---6-----------1--------1---1--------|
    G----7----7---------7---7------2---2--------2---2-------|
    D-7---------7-----------------2-------2-----------------|
    A---------------5-------------------------0-------------|
    E-------------------------------------------------------|

    Tanha hoon..........behney doo
    (C)
    e--------------------------|
    B----0---------------------|
    G---------5----5-----------|
    D---- -5----5--------------|
    A--------------------------|
    E--------------------------|

    With distotion..
    C Am C F (x3)
    C Am C ....

    Solo...
    e-------------------------------------------------------|
    B-------------------------------------------------------|
    G--7/9-9-9-9--7/9-9-7/9-9-7/9-9-7-5-4-5-4-7-5-----------|
    D-------------------------------------------------------|
    A-------------------------------------------------------|
    E-------------------------------------------------------|

    e--------------------------------------------------------|
    B--------------------------------------------------------|
    G--7/9-9-9-9--7/9-9-7/9-9-7/9-9-7-5-4-5-4-7-2------------|
    D--------------------------------------------------------|
    A--------------------------------------------------------|
    E--------------------------------------------------------|

    e------------------------|
    B------------------------|
    G--7-5-4-2-4-5-----------| (x4)
    D------------------------|
    A------------------------|
    E------------------------|

    e---------------------------------------------------------------------------|
    B--10-10-10-10-10-12-10-10-12-12-12-12-13-12-17-17-17-17-18-17-15-13-12-10--|
    G---------------------------------------------------------------------------|
    D---------------------------------------------------------------------------|
    A---------------------------------------------------------------------------|
    E---------------------------------------------------------------------------|

    e----------------------------------------------------------------------------|
    B-10-10-10-10-10-12-10-10-12-12-12-12-13-12-17-17-17-17-18-17-17-17s20-20-20-|
    G----------------------------------------------------------------------------|
    D----------------------------------------------------------------------------|
    A----------------------------------------------------------------------------|
    E----------------------------------------------------------------------------|

    (~ mean sustain)
    hmmmmmmmm........hmmmmmmmmmm.............hmm hmmm x2
    C~ F~ F F


    With ditortion...................
    C Am C F

    First listen song carefully and then try to play with a song.. ..its so easy..

    Any suggestion/correction...
    Shamsher khan...versatile_14@hotmail.com
     
  11. nadish

    nadish Active Member

    WOH LAMHAY, WITH INTRO, SOLO AND OUTRO

    NOT TABBED BY ME, ALL CREDITS TO AYEN


    e|------------------------------------------14-11--|
    B|-----------------------------12---11-9-----------|
    G|---------------9---8-6--\------------------------|
    D|----9---8-6--------------------------------------|
    A|--6---6------6---6---------9----9-------9--------|
    E|-------------------------------------------------|

    ho ho hooooo
    e|-----------------------------------------------14-11--|
    B|----------------------------------12---11-9-----------|
    G|--------------------9---8-6--\------------------------|
    D|---------9---8-6--------------------------------------|
    A|--11/6-6---6------6---6---------9----9-------9--------|
    E|------------------------------------------------------|

    ho ho oooo ooo hoo ho ho
    e|-----------------------------------------------14-11-----|
    B|----------------------------------12---11-9----------12--|
    G|--------------------9---8-6--\---------------------------|
    D|---------9---8-6-----------------------------------------|
    A|--11/6-6---6------6---6---------9----9-------9-----------|
    E|---------------------------------------------------------|

    ho ho hhhooo
    e|--------------------------------------------14----12----11-----|
    B|----12---11-9-----12---11-9s11-----12---11-----11----11----11--|
    G|--9----9--------9----9-----------9----9------------------------|
    D|---------------------------------------------------------------|
    A|---------------------------------------------------------------|
    E|---------------------------------------------------------------|

    ho ho hhhooo
    e|--------------------------------------------14----12----11-----|
    B|----12---11-9-----12---11-9s11-----12---11-----11----11----11--|
    G|--9----9--------9----9-----------9----9------------------------|
    D|---------------------------------------------------------------|
    A|---------------------------------------------------------------|
    E|---------------------------------------------------------------|


    guitar 1 (with distortion)
    woh lamhe....... na jaanay...... woh barsaatein
    e|-----------------------------------------|
    B|-----------------------------------------|
    G|-----------------------------------------|
    D|--6-----------------4-----------------2--|
    A|--6-----------------4-----------------2--|
    E|--4-----------------2-----------------0--|

    wo bheegi bheegi yaadein..wo bheegi bheegi yaadein
    e|--------------------------------------------|
    B|--------------------------------------------|
    G|--------------------------------------------|
    D|---------------6-------------------------2--|
    A|---------------6-------------------------2--|
    E|---------------4-------------------------0--|


    while guitar 1 is playin this...guitar 2 plays this: (lissen 2 the song fer the timing)
    e|--------14--------14--------16--------16--------16--|
    B|--11-11-----11-11-----12-12-----12-12-----12-12-----|

    e|--------14--------14--------16--------16--------16--|
    B|--11-11-----11-11-----12-12-----12-12-----12-12-----|

    e|--------14--------14--------14~--|
    B|--11-11-----11-11-----11-11------|



    then...there r 3 basic chords played thru out the song..

    pattern for the verses n bridges:
    na mein jaanon.... na tu jaanain.kaisa hai yeh aalam..koi na jaanay
    e|------4-----------------2--------------------0-------------2--|
    B|------4-----------------2--------------------0-------------2--|
    G|------4-----------------3--------------------1-------------3--|
    D|------6-----------------4--------------------2-------------4--|
    A|------6-----------------4--------------------2-------------4--|
    E|------4-----------------2--------------------0-------------2--|


    pattern for the chorus:
    woh lamhe......koi na jaanay...wo barsaatein..bheegi yaadein..yaadein
    e|--4-----------------2-----------0------------------2--------0--|
    B|--4-----------------2-----------0------------------2--------0--|
    G|--4-----------------3-----------1------------------3--------1--|
    D|--6-----------------4-----------2------------------4--------2--|
    A|--6-----------------4-----------2------------------4--------2--|
    E|--4-----------------2-----------0------------------2--------0--|


    then comes a solo:

    e|------------------------------------------------|
    B|--------------------------------------9-11-9-7--|
    G|--8-6-6-8-4-4-8-6-6-8-4-4-8-6-6-8-4-4-----------|
    D|------------------------------------------------|
    A|------------------------------------------------|
    E|------------------------------------------------|

    e|---------------------------------------------------------------------------9-11s12-11-11h12p11-9s11--|
    B|--------------------------------------9-11-12-14-12-11-9s11-9s7--9-9-11-12---------------------------|
    G|--8-6-6-8-4-4-8-6-6-8-4-4-8-6-6-8-4-4----------------------------------------------------------------|
    D|-----------------------------------------------------------------------------------------------------|
    A|-----------------------------------------------------------------------------------------------------|
    E|-----------------------------------------------------------------------------------------------------|


    n then the rest of the songs continues with the same patterns........

    near the ending...this lead is played on distortion:

    e|--x--x--x--x--x--|
    B|--x--x--x--x--x--|
    G|--x--x--x--x--x--|
    D|--9--8--6--4--2--|
    A|--7--6--4--2--0--|
    E|--x--x--x--x--x--|
     
  12. Orange Guitar

    Orange Guitar IGT's ALLROUNDER

    @nadish: wooooooooooooooooooohhh!!! u r the machine of copy pasting man!!!!!!! But woh lamhay solo and intro is not correct!!!!
     
  13. Lahori_rocker

    Lahori_rocker Guitar God left IGT

    hmmmmmmmmmmmmmmmmmmmmmmmmmm it is not correct
     
  14. BIG_EVIL

    BIG_EVIL Guitaring Machine

    chor do jal ka peecha
    im so fkin irritated by listenin to their songs
    JAL SUCKSSSSSSS now
     
  15. ayad

    ayad New Member

    sab to tum logo ne post kar diya... mere liye bhi to koi gana chorte.
     
  16. ayad

    ayad New Member

    hey nadish.... apna to kuch post karte . just give it a try
     

Share This Page