tabs 4 tujhe 'dekha to ye jana sanam'

Discussion in 'Hindi Guitar Tabs - Submit or Request' started by madhav268, Jun 18, 2009.

  1. madhav268

    madhav268 New Member

    Tujhe Dekha To Yeh Jaana Sanam
    e-0-0-0--7-5-7-----3-5--8-7
    B--------------------------

    Pyar Hota hai Deewana Sanam
    e-0-0-0--7-5-7-----3-5--3-2
    B--------------------------

    Ab Yahaan Se Kahaan Jaayen Ham
    e-0-2---0--2----0--3--2----
    B-----3------3-------------

    Teri baahon mein mar jaayen ham
    e-0-2---0--2----3--2--0----
    B-----3------3--------------

    Yaaar Pls Try It
    And if u think that its nice
    please upgrade my reputation !!PLEASE!!
     
  2. maddukuri

    maddukuri New Member

    excellent man!
    I dont think there is any thing to correct
     
  3. gemini4837

    gemini4837 New Member

    thank u so much man
     
  4. madhav268

    madhav268 New Member

    thanx 4 that
     
  5. idris

    idris New Member

    Check out this one

    e------------5-----5--------6---5-
    b---------------8----6---8--------
    g---7--7--7-----------------------



    e------------5-----5----------------
    b---------------8-----6---8---6---5-
    g---7--7--7-------------------------

    e-----------------------------------
    b----5----------5------------6---5--
    g-7------5---7-------5---7----------

    e-----------------------------------
    b-----5---------5--------6---5-----
    g-7------5---7-------5-----------7-
     
  6. idris

    idris New Member

    ddlj-Tujhe dekha to

    Check out this one

    e------------5-----5--------6---5-
    b---------------8----6---8--------
    g---7--7--7-----------------------



    e------------5-----5----------------
    b---------------8-----6---8---6---5-
    g---7--7--7-------------------------

    e-----------------------------------
    b----5----------5------------6---5--
    g-7------5---7-------5---7----------

    e-----------------------------------
    b-----5---------5--------6---5-----
    g-7------5---7-------5-----------7-
     
  7. arijit2

    arijit2 New Member

    madhav- excellent work. Though just check on the last line if it could be made better.
     
  8. seychellesblue

    seychellesblue New Member

    hey buddy good work, rep given but dude where is the first prelude music that srk starts before the song where kajol comes running, dude i need that
     
  9. madhav268

    madhav268 New Member

    it wil take some time.
     
  10. newbie268

    newbie268 New Member

    they r awesome dude.
     
  11. bujibhuvana

    bujibhuvana New Member

    HI.....could you post the preludes and interludes also????
     

Share This Page