TABS 4 ek pyar ka nagma hai+aadat+ek hasina thi

Discussion in 'Hindi Guitar Tabs - Submit or Request' started by sizzle_89, Oct 24, 2006.

  1. sizzle_89

    sizzle_89 New Member

    E-----------------------------------------------------------------------
    A-----------------------------------------------------------------------
    D-----------------------------------------------------------------------
    G-----------------------------------------------------------------------
    B--1--3--5--------------------------------------------------------------
    E-----------1-3-1-0------------------------------------------------------
    ek pyar ka nagma hai


    E-----------------------------------------------------------------------
    A-----------------------------------------------------------------------
    D-----------------------------------------------------------------------
    G-----------------------------------------------------------------------
    B--1--3--5-5-------------------------------------------------------------
    E-----------1-3-1-0------------------------------------------------------
    maujon ki ravani hai

    E-----------------------------------------------------------------------
    A-----------------------------------------------------------------------
    D-----------------------------------------------------------------------
    G-----------------------------------------------------------------------
    B-----------------------------3--0-------------5------------------------
    E--0-1-3-7-5-3-0-1-----|--0--------3-3-1-1-3----------------------------
    zindagi aur kuch bhi nahin teri meri kahani hai




    AADAT:

    INTRO:

    D--0-----------------------------------------
    G----2---2------2-------2------2------2------
    B------3------3-------3------3------3--------
    e-----------0-------0------0------0----------



    D--3-----------------------------------------
    G----3---3------3------3------3------3------
    B------3------3------3------3------3--------
    e-----------0------0------0------0-----------


    MUSIC:

    e--4-5-4-4-4--------------------------------------------------
    B-------------7-5-4-4-5-4-2-5----------------------------------


    e--4--5-4-4-7-9-7-11--11-11--9-9-7-5-2-------------------------


    EK HASINA THI:

    e----------0-----------0----------------------
    B--4--2-4------4--2-4------------------------------
    kya umar thi kya sama tha

    e---------0--------------------------------------------
    B--4-2-4----2---2-2-1-2-4-0--4-4-2-4-2-2------------
    kya zamana tha ik hasina thi ik diwana tha




    HEY! ITS MY FIRST POST SO DO WRITE UR COMMENTS N SUGGESTIONS.
     
    jozko likes this.
  2. jozko

    jozko Banned

    I tried start of pyaar ka nagma. Great start sizzle! U may put code tags to keep tab text aligned (as one below). I usually like to play on more strings than first two like u did for aadat.That helps me minimize fnger movements
    for e,g i prefer to play ur notes like
    Code:
    E----------------------------------------
    A----------------------------------------
    D----------------------------------------
    G-5-7------------------------------------
    B-----5-6-8-6-5--------------------------
    E-----------------------------------------
    ek pyar ka nagma hai
    
    
    E-----------------------------------------
    A-----------------------------------------
    D-----------------------------------------
    G-----------------------------------------
    B-----------------------------------------
    E-----------------------------------------
    maujon ki ravani hai
    
    E-----------------------------------------
    A-----------------------------------------
    D-----------------------------------------
    G-----------------------------------------
    B--5-6-8----------------------------------
    E--------7--5-----------------------------
    zindagi aur kuch bhi nahin teri meri kahani hai
    Reps to u for good start! do post more. rgds
     
  3. Morbid_Angel

    Morbid_Angel Sid the sloth

    Ek hasina thi is wrong. -_-
     
  4. sizzle_89

    sizzle_89 New Member

    well arnold i wrote it wdout listnin 2 the song i mean i jus rmbrd how d song is like n i thnk its all right theres sum problem wd d way ur playin it or wd ur guitar mayb.
     
  5. Morbid_Angel

    Morbid_Angel Sid the sloth

    No, It's just wrong.

    Check your tabs.
     
  6. sizzle_89

    sizzle_89 New Member


    Hey! listen i don agree wd u i thnk ur mistaken n i don giv a damn abt wat u thnk abt it still if u thnk its wrng pls don bother abt it, its my thread, ok.
     
  7. jozko

    jozko Banned

    At this moment...waiting for AJ to come back from school :D
     
  8. .:SpY_GaMe:.

    .:SpY_GaMe:. New Member

    wrong thread i guess @ jozko
     
  9. jozko

    jozko Banned

    no spy, i meant here.
     
  10. Morbid_Angel

    Morbid_Angel Sid the sloth

    I'm back.

    @sizzle
    You own this thread. My suggestions. If you don't wanna improve, stay behind. Why should I care for you? Check for bandbaaja's tab of Ek hasina thi. I don't give a damn.

    Peace out.
     
  11. jozko

    jozko Banned

    ^ i expected that response from AJ
    sizzle AJ is right, do chk bandbaaja's tabs unless we are talking of different songs or remixes. sometimes putting an audio clip fixes confusion and also helps those following tabs. just my thoughts
     
  12. sizzle_89

    sizzle_89 New Member

    see it sounds fine 2 me n if it doesnt 2 u then u luk 4 other tabs y shld i. had i felt dat im wrong i wld ve accepted it but i cant agree abt somethn jus coz other ppl feel the other way.
    And its not ur job 2 improve ppl. u lik a thrd den its fine bt if u don y don u jus 4get abt it.
     
  13. jozko

    jozko Banned

    They were just comments or suggestions as u wanted. Take it easy.
    Your tabs are correct, rgds
     
  14. Morbid_Angel

    Morbid_Angel Sid the sloth

    You alone against a million people feel your tune is correct? I don't care anyway dude. I'm not sure about your ear if you feel your tabbing is right.


    I was actually pointing at the sentence above. Its my opinion, which you have asked for.

    Last advice : I've been playing karz since 8 months, listen to the song for the last time or go ahead and post a recording of you playing this tab you have submitted.

    Peace.
     
  15. sizzle_89

    sizzle_89 New Member


    and who r thse ' million " ppl of urs. if uve ever visited an eye specialist in ur life then hav a luk at jozko's post he says its correct. and cant a song b played on diff scales? n im sure u wld nt hav tabbd d song urself u wld hav copied it obviously.

    MY ADVICE: use ur brains don always copy paste

    "MILLION PEOPLE"--?????????'
    "MILLION PEOPLE"--?????????"MILLION PEOPLE"--?????????"MILLION PEOPLE"--?????????"MILLION PEOPLE"--?????????


    UR ONLY ONE IN MILLION. HA!! HA!!
     
  16. Morbid_Angel

    Morbid_Angel Sid the sloth

    Lol. Check your tuning is all I can say. Your song is not only in a different scale, but it's totally wrong.

    And by the way, I had tabbed the tune myself 6 months back on the keyboard.

    You don't need to take my suggestions and I don't need to summon a million people. Everyone in India plays Karz, they'll stop after seeing your tune.
     
  17. jozko

    jozko Banned

    sizzle me saying right doesn't have to mean it is. If you think it is right, just continue to play. I play different from AJ's. I think AJ has given tabs in correct scale earlier. but I am playing Bandbaaja verison at different frets

    You should check how tabs to this song evolves here http://www.indianguitartabs.com/showthread.php?t=4943
    I follow the ones by Bandbaaja there. He's one of the best here.

    btw don't feel bad AFAIK AJ is sincere in opinions. Fights are a feature of this forum, I too do that. I did read that you tabbed tune from memory.

    And i don't think u are playing la la la part in karz music. Are you?
    Happy playing and welcome again to a noisy forum, keep posting.
     
  18. sizzle_89

    sizzle_89 New Member

    hah! y ill ppl stop playin it jus coz mr. aj doesnt like it. n ur not suggesting ur jus outrightly rejectin it,ok n i thnk dats rude

    n 4 ur info i playd it infront of my gutar sir if he said its correct den who d hell is a know-nothing lik u 2 say its wrong. in ur last post u said u played it 8 mnths ago nw uve cum upto 6 mnths
    stop lyin man
    and u know wat ppl in india hav their brains rt their nt lik u , if they feel its correct they ll play it or else they wont get their ego in b/w insistin they r rt

    if u dont lik it y don u jus stop postin here!
     
  19. Morbid_Angel

    Morbid_Angel Sid the sloth

    Your stupid besura tune doesn't make me stop posting here.

    And, 8 months back I played karz which my dad taught me. It was in the wrong scale. I tabbed it myself 2 months later in the correct scale.
     
  20. Morbid_Angel

    Morbid_Angel Sid the sloth

    Code:
                                3x  
    E||---2----0--2----3-------||--0------0--0---------|--0----2--------------|
    B||------------------------||-----------------2----|------------4---------|
    G||*----------------------*||----------------------|----------------------|
    D||*----------------------*||----------------------|----------------------|
    A||------------------------||----------------------|----------------------|
    E||------------------------||----------------------|----------------------|
    
    
          
    ------0----2--2----0---|-----------0--------||
    --4--------------------|--------------------||
    -----------------------|--------------------||
    -----------------------|--------------------||
    -----------------------|--------------------||
    -----------------------|--------------------||
    The same tune in the same scale in the same octave is played on the 4th string, starting on the 16th fret.

    Try it out for once. Play it in the open position first.
     

Share This Page