tab notes for en iniya pon nilave

Discussion in 'Tamil Guitar Tabs - Submit or Request' started by cooler, Mar 26, 2009.

  1. cooler

    cooler New Member

    hi guys...am a beginner in guitar..i can follow tabs n play guitar notes coz am nt familiar with reading notes...i've started playing en iniya pon nilavae's intro lead notes....could somebody tell me how to go about palying the chords for this song...if nt could somebody give me the tab notes for palying this entire song on the guitar without the involvement of chords or strumming?......
     
  2. trisha v

    trisha v New Member

    hi i am Trisha. i need the chords for En iniya pon nilave too!
     
  3. balc11

    balc11 New Member

    Here u go...

    krishnashasankardotcom/2009/08/guitar-notes-for-en-iniya-pon-nilave/
     
  4. Loganathan7682

    Loganathan7682 New Member

    This is the real intro for en iniya pon nilave song ... Enjoy
    E------3------------- }
    B------4------------- }
    G------5------------- }
    D------5------------- } strum from down to up 1 times ..
    A------3------------- }
    E------3------------- }

    E---------
    B--3-4-3--
    G--------- X2
    D---------
    A-3-------
    E---------

    E----------------1-0-1----------------------1-0-1----------------------
    B---4-3-4----4----------------4-3-4----4-----------------4-3-3-1-------
    G------------------------------------------------------------------3-1---
    D------------------------------------------------------------------------
    A-3--------1-----------1s3--3--------1--------------1s3-----------------
    E--------------1---------------------------1-----------------------------
     
  5. abhishekmalyala

    abhishekmalyala New Member

    Can you please type your tabs with more space. I can't make out which note comes first Sir,
    Regards,
    Abhay
     
  6. pearlmaharajan

    pearlmaharajan New Member

    please search for the same in this forum... they are already there...

     

Share This Page