Tab [Muqaddar ka sikandar : Muqaddar ka sikandar]

Discussion in 'Hindi Guitar Tabs - Submit or Request' started by Acousticity, Oct 1, 2005.

  1. Acousticity

    Acousticity New Member

    Hi Guys,

    This is my first post with a TAB. I would appreciate any feedback.

    --Acousticity


    Song: Muqaddar Ka Sikandar
    Film: Muqaddar Ka Sikandar
    Tabber: Acousticity

    Rote hue aate hain sab, hansta huaa jo jaayega
    E|-------------------------------------------------------------------------
    B|---5--------------5-----------------5-----------------------------------
    G|-7---5-7-------7---5-7---------7---5-7---7/10---8--7-7------------
    D|-------------------------------------------------------------------------
    A|-------------------------------------------------------------------------
    E|-------------------------------------------------------------------------

    Woh muqaddar ka sikandar ... woh muqaddar ka sikandar
    E|-------------------------------------------------------------------------
    B|-9-9-9/10--9\7------7-7-7/9--7\5----9-9-9/10--9\7------7-7-7/9--7\5-
    G|-------------------------------------------------------------------------
    D|-------------------------------------------------------------------------
    A|-------------------------------------------------------------------------
    E|-------------------------------------------------------------------------

    Jaaneman kehlaayega
    E|-------------------------------------------------------------------------
    B|-5-5-5/10--------5h6-8-6-5-----------------------------------------
    G|-------------------------------------------------------------------------
    D|-------------------------------------------------------------------------
    A|-------------------------------------------------------------------------
    E|-------------------------------------------------------------------------
     
  2. arslan ahmed

    arslan ahmed New Member

    Kool its too kool
     
  3. strings

    strings New Member

    nice tabs....
     

Share This Page