Tab a song and earn 10K points

Discussion in 'Hindi Guitar Tabs - Submit or Request' started by amit82cse, Jan 29, 2006.

  1. amit82cse

    amit82cse Silent observeR

    Here is an opportunity for all of you to increase your bank balance by 10K points.

    Tab the following song and post it in this thread. IGT members only will evaluate the post for accuracy and the winner will get 10K points.

    Extraas: I will be posting the recording of winning tabs.

    Here are the song details:

    Movie: Shabd (2005)
    Song: Chahaton Ka Silsila
    Singers: Kumar Sanu, Sunidhi Chauhan

    URL to Listen: _http://www.raaga.com/channels/hindi/movie/H000771.html
    [Song number 5 in track listing]

    URL for Lyrics : _http://www.hindilyrix.com/songs/get_song_Chaahton%20Ka%20Silsila.html


    Evaluation Criteria:
    0. Accuracy of tabs
    1. Presentation of tabs
    2. Tabbing the interlude music

    So guys what are you waiting for, lets get started.

    All The Best!
     
  2. abhimanjrekar

    abhimanjrekar ----> Zhol-Man<----

    hmm..i like challenges..ive given it a try in one go...see if its fine.....

    --FEMALE--
    Jism to sirf ek bahana hai

    e-----------------------------------------
    b-----------------------------------------
    g------6--6-6-6-7-6-4--------------------
    d-4-4-6-----------------------------------

    Rooh tak saath saath jaana hai
    e----------------------------------------
    b----------------------------------------
    g----------------------------------------
    d-----6--6-6-6-6-6--7-7-7----------------
    a-7-7------------------------------------

    Haath jabse hai tera haathon mein
    e----------------------------------------
    b---------------5-------------------------
    g----7-7-7--7-4---4-3---------------------
    d-4-4--------------------------------------

    Mere haathon mein zamaana hai

    e----------------------------------------
    b----------------------------------------
    g----------------------------------------
    d-------6-6-6---7-6-4-4------------------
    a-7-7-7---------------------------------

    MUSIC 1:: paino or somethin plays uske baad this piece....

    d-----4-7-4-7-----------------------------
    a-4-7--------------------------------------

    d-----4-6-4-6------------------------------
    a-4-7--------------------------------------

    MUSIC 2 ::

    e--------------------------------------------
    b--------------------------------------------
    g--4-6-7-6-4----4-6-4-6-7-6-4----------------
    d-7-----------7------------------------------

    e---------------------------------------------
    b----------------------------------------
    g-----4-4----------------------------------
    d-7-4-----4---------------------------------

    e----------------------------------------
    b----------------------------------------
    g-----4-4---------4-------------------------
    d-7-4------4----4---7-4-7-------------------
    a-------------7---------------------------

    --MALE--

    lo shuroo abh chahaton ka

    e----------------------------------------
    b----------------------------------------
    g-6-4-6----------------------------------
    d-------7--6-6-7-7------------------------

    silsila ho raha hai

    e----------------------------------------
    b----------------------------------------
    g---4-------------------------------------
    d-6---7-7---4-----------------------------
    a---------7---7----------------------------

    mit rahi hain dooriyan

    e----------------------------------------
    b----------------------------------------
    g-6-4-6----------------------------------
    d-------7--6-6-7-7------------------------

    aur faasila kho raha hai

    e----------------------------------------
    b----------------------------------------
    g-------6---4-4---------------------------
    d-7-7-7---7------------------------------

    ho rahi hai baat kuch aisi jis mein

    e----------------------------------------
    b-----5-5--5-5-5-5-5----------------------
    g---6-------------6-6-4-6-----------------
    d-7---------------------------------------

    ho rahi hai baat kuch aisi jis mein

    e---------------------------------------
    b-----5-5--5-5-5-5--5--------------------
    g---6-------------6--6-4-6--------------
    d-7---------------------------------------

    shabd gum hai

    e----------------------------------------
    b----------------------------------------
    g-3-4-6-------------------------------------
    d-------7---------------------------------

    arth matlab chupke se kho raha hai

    e----------------------------------------
    b----------------------------------------
    g----------4-----------------------------
    d-6-6-7-7-6--7-7--4------------------------
    a---------------7----7---------------------

    lo shuroo abh chahaton ka
    silsila ho raha hai
    mit rahi hain dooriyan
    aur faasila kho raha hai

    repeat MUSIC 2 twice

    --FEMALE--

    rut na thi pehle kkabhi itni jawaan

    e----------------------------------------
    b------------5-------------------------
    g-6-4-6-6-4-6--6---4-6-4-----------------
    d----------------7------------------------

    thoda nayaa sa lag ra hai yeh jahan

    e----------------------------------------
    b-----5----------------------------
    g-6-6--6-4-6--6-4-4---4-6-4-------
    d-------------------7----------------------


    --MALE--

    aayega aur bhi aisa hi sama – 2

    e----------------------------------------
    b------5--5-7------------------------
    g--4-6--6-----6-4-6-------------------------
    d-7---------------------------------------

    haan hameshaa do dilon ko pyaara sa jo raha hai

    e--------------------------------------------
    b--------------------------------------------
    g-3-4-6----------------4---------------------
    d-------7--6-6--7-7--6---7-7----4------------
    a-----------------------------7---7----------

    lo shuroo abh chahaton ka
    silsila ho raha hai
    mit rahi hain dooriyan
    aur faasila kho raha hai


    --FEMALE--

    dil yeh chaahe
    toot kar chahoon tumhe

    e--------------------------------------------
    b-----5---------------------------------------
    g-6-6---4-6-6---4-6-4-------------------------
    d-------------7-------------------------------

    dedo ijaazat tootne ki tumhe

    e--------------------------------------------
    b-----5----------5-----------------------------
    g-6-6---4-6-6--6---6-4----6-4------------------
    d-----------------------7---------------------

    --MALE--
    chuun ke rakh lo chahaton ke yeh lamhe

    e--------------------------------------------
    b-------5-5--5-5-7-5---5---------------------
    g---6-6--------------6---6-4-6---------------
    d-7-------------------------------------------

    yuhn sambhal kar thaam lo pal
    e----------------------------------------
    b----------------------------------------
    g-3-4-6-------------------------------------
    d-------7---------------------------------

    dekho woh kho raha hai
    e----------------------------------------
    b----------------------------------------
    g----------4------------------------------
    d-6-6-7-7-6--7-7--4------------------------
    a---------------7----7---------------------


    --MALE--

    lo shuroo abh chahaton ka

    e----------------------------------------
    b----------------------------------------
    g-6-4-6----------------------------------
    d-------7--6-6-7-7------------------------

    silsila ho raha hai

    e----------------------------------------
    b----------------------------------------
    g---4-------------------------------------
    d-6---7-7---4-----------------------------
    a---------7---7----------------------------

    mit rahi hain dooriyan

    e----------------------------------------
    b----------------------------------------
    g-6-4-6----------------------------------
    d-------7--6-6-7-7------------------------

    aur faasila kho raha hai

    e----------------------------------------
    b----------------------------------------
    g-------6---4-4---------------------------
    d-7-7-7---7------------------------------

    ho rahi hai baat kuch aisi jis mein

    e----------------------------------------
    b-----5-5--5-5-5-5-5----------------------------
    g---6-------------6-6-4-6---------------------
    d-7---------------------------------------

    ho rahi hai baat kuch aisi jis mein

    e----------------------------------------
    b-----5-5--5-5-5-5-5----------------------------
    g---6-------------6-6-4-6---------------------
    d-7---------------------------------------

    shabd gum hai

    e----------------------------------------
    b----------------------------------------
    g-3-4-6-------------------------------------
    d-------7---------------------------------

    arth matlab chupke se kho raha hai

    e----------------------------------------
    b----------------------------------------
    g----------4------------------------------
    d-6-6-7-7-6--7-7--4------------------------
    a---------------7----7---------------------



    repeat the part once as instrumental.......
     
  3. amit82cse

    amit82cse Silent observeR

    cool we have one entry....

    @abhi - i will try them out and give feedback soon
     
  4. abhimanjrekar

    abhimanjrekar ----> Zhol-Man<----

    no probs..had free time saw ur post.....tabbed themm...check them and see.....
     
  5. abhimanjrekar

    abhimanjrekar ----> Zhol-Man<----

    wht happened...r they too difficult to tab outt....
     

Share This Page