Sweet Home Alabama Tabs

Discussion in 'English Guitar Tabs - Submit or Request' started by SAii, Aug 4, 2009.

  1. SAii

    SAii New Member

    This is Sweet Home Alabama, really nice song.
    Its not the whole song but the first part.


    |-------------------------------|-------------------------------|
    |--------3---------------3------|-------------------------------|
    |----------2---------------0----|--------0--0----------------2/0|
    |--0--0------0---------------0--|-------------------0-2/0-------|
    |--------------3(0)3------------|--------------0/2--------2-----|
    |-------------------------------|-3(0)3-------------------------|



    |-------------------------------|-------------------------------|
    |--------3---------------3------|-------------------------------|
    |----------2---------------0----|--------0--0--2/0-0-4/0-----5fb|
    |--0--0------0---------------0--|-------------------------0-----|
    |--------------3(0)3------------|-------------------------------|
    |-------------------------------|-3x3---------------------------|


    I noe, its short.
    Tell me if there are any mistakes.
     
  2. motoxstar

    motoxstar New Member

    cud u tell me the meaning of those brackets?
     
  3. youtube

    youtube New Member

    superb man
     

Share This Page