Sweet Child of Mine- the Intro

Discussion in 'English Guitar Tabs - Submit or Request' started by mrcheerful, Aug 16, 2007.

  1. mrcheerful

    mrcheerful New Member

    I dont know whether this has been posted earlier or not but nevertheless I give you ......


    Intro of SWEET CHILD o' MINE


    e -------------15----14-----
    b ----15--------------------
    g -------14-12----14----14--
    d -12-----------------------
    a --------------------------
    e --------------------------

    e -------------15----14-----
    b ----15--------------------
    g -------14-12----14----14--
    d -12-----------------------
    a --------------------------
    e --------------------------

    e -------------15----14-----
    b ----15--------------------
    g -------14-12----14----14--
    d -14-----------------------
    a --------------------------
    e --------------------------

    e -------------15----14-----
    b ----15--------------------
    g -------14-12----14----14--
    d -14-----------------------
    a --------------------------
    e --------------------------

    e -------------15----14-----
    b ----15--------------------
    g -12----14-12----14----14--
    d --------------------------
    a --------------------------
    e --------------------------

    e -------------15----14-----
    b ----15--------------------
    g -12----14-12----14----14--
    d --------------------------
    a --------------------------
    e --------------------------

    Repeat the whole thing atleast twice and end it with: -

    e -12---12-14-15-14-12------
    b ----15--------------15----
    g --------------------------
    d --------------------------
    a --------------------------
    e --------------------------

    Now the song starts....

    Please let me know if i'VE made any mistakes

    Cya
     
  2. mrcheerful

    mrcheerful New Member

    109 views .... but no reply!
    COME ON!.... not fair!
     
  3. kuldeepdec9

    kuldeepdec9 New Member

    How to read these Tabs

    Can anybody help me to read these tabs
     
  4. caprikaush

    caprikaush New Member

    Boss post the chords too
     
  5. y_muralee

    y_muralee New Member

    I like this song very much..I'll try tonight and will give you the feedback
    Cheers
     
  6. ijAcK

    ijAcK New Member

    mmmmmmmmmmmmmmmmm seeking to join a band anyone?
     
  7. ultrabot90

    ultrabot90 Like fishes need bicycles

    HUH Chords are like
    Code:
    D
    She's got a smile that it seems to me
    C
    Reminds me of childhood memories
    G                                                  D
    Where everything was as fresh as a bright blue sky
    
    Hey wow I actually thought that out without a guitar and based on my memory of the song rofl
     
  8. gibson_Playa

    gibson_Playa New Member

    dude u shud also put the amp and tone settings
     
  9. saustin316

    saustin316 New Member

    This intro is probably the most hardest to play in your mind when you hear it, but when you try it on the guitar you'll find it really easy.
    By the way adding to the chorus is A/ C/D
    Even the solo isn't very hard if you have a wah wah pedal!
     

Share This Page