Such keh raha hai deewana

Discussion in 'Hindi Guitar Tabs - Submit or Request' started by lord_neo, Oct 3, 2004.

  1. lord_neo

    lord_neo Guest

    Such keh raha hai deewana

    By: aloneas_moon

    --------------------------------------------------------------------------
    -15-15-14-14----------------------15-15-14-14--------------------------
    --------------16-16-15-15h16-16-----------------16-16-15-15h16-16-----
    --------------------------------------------------------------------------
    --------------------------------------------------------------------------
    --------------------------------------------------------------------------
    such ke raha he deewana dil dil kise se na lagana

    --------------------------------------------------------------------------
    -17-17-16-17-17-16-17-19-20-19---------17-17-16-17-17-16-17-19-20-19----------
    --------------------------------------------------------------------------
    --------------------------------------------------------------------------
    --------------------------------------------------------------------------
    --------------------------------------------------------------------------
    maine hur dum jise chaha

    --------------------------------------------------------------------------
    -20--20--19-19-17------------------------------------17-15--------------
    -------------------19-18----16-18-16-18-16-18-16-18---------18--------
    --------------------------------------------------------------------------
    --------------------------------------------------------------------------
    --------------------------------------------------------------------------
    usi ne yaaro mera dil thora thora etc
    ================================================== ======
    song name : Tu tu hai vohi dil ne jisse apna kaha

    E|-----------------9-----8----6-------------------------8-------|
    B|--6--8--9---8-6-----------------9---8------6-8--6-------------|
    G|----------------------------------------8----------8----------|
    f g g# g f c#, c a# g# g, d# f g f d# c
    Tu tu hai wahi, dil ne jisse, ap na kaha

    E|----5-------------------------------------6-------------------|
    B|-------9----8-9--6----------8----9----8-6---------------------|
    G|--------------------------------------------------------------|
    a g# g g# f, g g# g f a#
    Tu hai jahan, main hoon vahan

    E|--------------------------------------------------------------|
    B|--8--6---9--8-----------6--8/9-----------8---6--6-------------|
    G|--------------8------8----------------------------------------|
    g f g# g d#, d# f g/g#, g f f,
    Ab to yeh jeena, tere bin, hai saza,

    E|------6-----6---6---6--6--8-8/9----8-6------------------6/8---|
    B|-8-9-------------------------------------9--9----9---9--------|
    G|--------------------------------------------------------------|
    g g# a#, a# a# a# a# c c/c#, c a# g# g# g# g# a#/c
    O, mil jaayen is tarah, do lehren jis tarah

    E|---6----------------------------------------------------------|
    B|------9--6--8-----9--------8----6------8--6-6-----------------|
    G|---------------8--------------------8-------------------------|
    a# g# f g d# g#, g f d# g f f
    Phir ho na judaa, haan yeh vaada raha,


    E|---------------8------8----8----------------6-----------------|
    B|------6-----6------8-----------------6--6------6--8--8--------|
    G|--------------------------------------------------------------|
    f f c g c c, f f a# f g g
    Main aa waa z hoon to, tu hai geet mera

    E|----------8-----8--8--------------6---------------------------|
    B|----6---6----8---------------6--6----6--8--8------------------|
    G|--------------------------------------------------------------|
    f f c g c c, f f a# f g g ,
    Jahan se niraala, manmeet mera,


    E|--6---6---6--6--8-8/9----8-6-------------------6/8------------|
    B|-------------------------------9---9---9----9-----------------|
    G|--------------------------------------------------------------|
    a# a# a# a# c c/c#, c a# g# g# g# g# a#/c
    mil jaayen is tarah, do lehren jis tarah


    E|---6----------------------------------------------------------|
    B|------9--6--8-----9--------8----6------8--6-6-----------------|
    G|---------------8--------------------8-------------------------|
    a# g# f g d# g#, g f d# g f f
    Phir ho na judaa, haan yeh vaada raha,



    Tu tu hai vohi dil ne jisse apna kaha
    Tu hai jahan main hoon vahan
    Ab to yeh jeena tere bin hai saza
     
  2. gautam_njoy

    gautam_njoy New Member

    nice 1... it wud be helpful if u cud hav the bigger versions of these songs.. i mean not just the startin lines
     
  3. sumit

    sumit HaNdS uPPP!!

    place the chords also with it
     
  4. invincible2k

    invincible2k New Member

    here is the Chords of this song

    Song : Sach Keh Raha Hai Deewana
    Film : Rahna Hai Tere Dil Mein


    Bm A Bm A

    Sach Keh Raha Hai Deewana dil dil na kisi se lagana
    Bm A Bm A

    Jhoote hain yaar ke wade sare jhooti hain pyar ki qasmein

    Bm A Bm AG Bm (G) F#mF# Bm

    Maine har lamha jise chaha jise pooja usi ne yaron mera dil toda tanha tanha choda.

    Bm A Bm G A G

    Sundar sundar who haseena badi sundar sundar mein to khone laga us ke nashe mein

    F#(244322) Bm

    Bin piye bahke a…a….a..

    Bm A G F#(244322) Bm A G F#Bm

    Ek din use bhula doonga mein us ke nishan mita doonga mein

    Bm A G F# Bm A G F#

    Chahoonga na mein us pathar ko ja use bata de ee….e
     
  5. manishjhumroo

    manishjhumroo New Member

    ther is some mistake c minor se gana shuru hai aur para d # se uthe ka fir g # lagao to maja aa jayega gane main .vaise har ek ka apna style hota hai good chords per 7 chords hain is gane main
     

Share This Page