Submit on Request::ZOE JANE, staind

Discussion in 'English Guitar Tabs - Submit or Request' started by drsherry, Jan 21, 2007.

  1. drsherry

    drsherry Guitarist [SEER]

    Key:
    xxx - play 'note' with heavy damping
    / - slide up
    \ - slide down
    pm - palm mute
    < > - harmonic
    h - hammer on

    Tuning: eb Bb Gb Db Ab Eb

    (Guitar 1) - Acoustic
    (Guitar 2) - Electric (clean into/verse, heavy distortion chorus)

    Intro: (Guitar 1)
    eb|-------------------------|-------------------------|
    Bb|---5-----5-----7-----7---|---8-----8-----8-----8---|
    Gb|-----0-----0-----0-----0-|-----0-----0-----0-----0-|
    Db|-------------------------|-------------------------| x4
    Ab|-3-----3----/5-----5-----|/7-----7-----7-----7----\|
    Eb|-------------------------|-------------------------|

    (Guitar 2)
    eb|-------------------------|-------------------------|
    Bb|----<12>--------<12>-----|----<5>---------<12>-----|
    Gb|------<12>---------------|------<5>---------<12>---|
    Db|------------------<7>----|-------------------------|
    Ab|-------------------------|--------<7>---------<7>--|
    Eb|-------------------------|-------------------------|

    eb|-------------------------|-------------------------|
    Bb|----<12>--------<12>-----|----<5>-------------<12>-|
    Gb|------<12>---------------|------<5>-------<12>-----|
    Db|------------------<7>----|-------------------------|
    Ab|-------------------------|--------<7>--------------|
    Eb|-------------------------|-------------------------|

    eb|<12>---------------------|-------------------------|
    Bb|----<12>--------<12>-----|----<5>---------<12>-----|
    Gb|------<12>--------<7>----|------<5>---------<12>---|
    Db|-------------------------|-------------------------|
    Ab|-------------------------|--------<7>---------<7>--|
    Eb|-------------------------|-------------------------|

    eb|-------------------------|-------------------------|
    Bb|----<12>--------<12>-----|----<5>-------------<12>-|
    Gb|------<12>---------------|------<5>-------<12>-----|
    Db|------------------<7>----|-------------------------|
    Ab|-------------------------|--------<7>--------------|
    Eb|-------------------------|-------------------------|


    Verse: (Guitar 1)
    eb|-------------------------|-------------------------|
    Bb|---5-----5-----7-----7---|---8-----8-----8-----8---|
    Gb|-----0-----0-----0-----0-|-----0-----0-----0-----0-|
    Db|-------------------------|-------------------------| x4
    Ab|-3-----3----/5-----5-----|/7-----7-----7-----7----\|
    Eb|-------------------------|-------------------------|

    (Guitar 2)
    eb|<12>---------------------|-------------------------|
    Bb|----<12>--------<12>-----|----<5>---------<12>-----|
    Gb|------<12>---------------|------<5>---------<12>---|
    Db|------------------<7>----|-------------------------|
    Ab|-------------------------|--------<7>---------<7>--|
    Eb|-------------------------|-------------------------|

    eb|-------------------------|-------------------------|
    Bb|----<12>--------<12>-----|----<5>-------------<12>-|
    Gb|------<12>---------------|------<5>-------<12>-----|
    Db|------------------<7>----|-------------------------|
    Ab|-------------------------|--------<7>--------------|
    Eb|-------------------------|-------------------------|

    eb|<12>---------------------|-------------------------|
    Bb|----<12>--------<12>-----|----<5>---------<12>-----|
    Gb|------<12>--------<7>----|------<5>---------<12>---|
    Db|-------------------------|-------------------------|
    Ab|-------------------------|--------<7>---------<7>--|
    Eb|-------------------------|-------------------------|

    eb|-------------------------|-------------------------|
    Bb|----<12>--------<12>-----|----<5>-------------<12>-|
    Gb|------<12>---------------|------<5>-------<12>-----|
    Db|------------------<7>----|-------------------------|
    Ab|-------------------------|--------<7>--------------|
    Eb|-------------------------|-------------------------|


    Chorus: (Guitar 1)
    eb|-------------------------|-------------------------|
    Bb|---12----12----12----12--|---10----10----10----10--|
    Gb|-----0-----0-----0-----0-|-----0-----0-----0-----0-|
    Db|-------------------------|-------------------------|
    Ab|-10----10----10----10----|\9-----9-----9-----9-----| \
    Eb|-------------------------|-------------------------| \
    |x3
    eb|-------------------------|-------------------------| /
    Bb|---8-----8-----8-----8---|---5-----5-----5-----5---| /
    Gb|-----0-----0-----0-----0-|-----0-----0-----0-----0-|
    Db|-------------------------|-------------------------| (play on first)
    Ab|\7-----7-----7-----7-----|\3-----3-----3-----3----/| (2 times only)
    Eb|-------------------------|-------------------------|

    (Guitar 2)
    eb|-------------------------|-------------------------|
    Bb|-------------------------|-------------------------|
    Gb|-------------------------|-2-----2-2---4h5-4---2---|
    Db|/5-----5-5---5-----5-5---|-4-----4-4---4---4---4---|
    Ab|/5-----5-5---5-----5-5---|-4-----4-4---------------| \
    Eb|/3-----3-3---3-----3-3---|-2-----2-2---------------| \
    |x3
    eb|-------------------------|-------------------------| /
    Bb|-------------------------|-------------------------| /
    Gb|-------------------------|-5----(5-5---5-----5-5)--|
    Db|-5-----5-5---5-----5-5---|-5----(5-5---5-----5-5)--| (strum on first)
    Ab|-2-----2-2---2-----2-2---|-3----(3-3---3-----3-3)--| (2 times only)
    Eb|-0-----0-0---0-----0-0---|-0----(0-0---0-----0-0)--|


    Verse: (Guitar 1)
    eb|-------------------------|-------------------------|
    Bb|---5-----5-----7-----7---|---8-----8-----8-----8---|
    Gb|-----0-----0-----0-----0-|-----0-----0-----0-----0-|
    Db|-------------------------|-------------------------| x4
    Ab|-3-----3----/5-----5-----|/7-----7-----7-----7----\|
    Eb|-------------------------|-------------------------|

    (Guitar 2)
    eb|-------------------------|-------------------------|
    Bb|----<12>--------<12>-----|----<5>---------<12>-----|
    Gb|------<12>---------------|------<5>---------<12>---|
    Db|------------------<7>----|-------------------------|
    Ab|-------------------------|--------<7>---------<7>--|
    Eb|-------------------------|-------------------------|

    eb|-------------------------|-------------------------|
    Bb|----<12>--------<12>-----|----<5>-------------<12>-|
    Gb|------<12>---------------|------<5>-------<12>-----|
    Db|------------------<7>----|-------------------------|
    Ab|-------------------------|--------<7>--------------|
    Eb|-------------------------|-------------------------|

    eb|<12>---------------------|-------------------------|
    Bb|----<12>--------<12>-----|----<5>---------<12>-----|
    Gb|------<12>--------<7>----|------<5>---------<12>---|
    Db|-------------------------|-------------------------|
    Ab|-------------------------|--------<7>---------<7>--|
    Eb|-------------------------|-------------------------|

    eb|-------------------------|-------------------------|
    Bb|----<12>--------<12>-----|----<5>-------------<12>-|
    Gb|------<12>---------------|------<5>-------<12>-----|
    Db|------------------<7>----|-------------------------|
    Ab|-------------------------|--------<7>--------------|
    Eb|-------------------------|-------------------------|


    Chorus: (Guitar 1)
    eb|-------------------------|-------------------------|
    Bb|---12----12----12----12--|---10----10----10----10--|
    Gb|-----0-----0-----0-----0-|-----0-----0-----0-----0-|
    Db|-------------------------|-------------------------|
    Ab|-10----10----10----10----|\9-----9-----9-----9-----| \
    Eb|-------------------------|-------------------------| \
    |x3
    eb|-------------------------|-------------------------| /
    Bb|---8-----8-----8-----8---|---5-----5-----5-----5---| /
    Gb|-----0-----0-----0-----0-|-----0-----0-----0-----0-|
    Db|-------------------------|-------------------------| (play on first)
    Ab|\7-----7-----7-----7-----|\3-----3-----3-----3----/| (2 times only)
    Eb|-------------------------|-------------------------|

    (Guitar 2)
    eb|-------------------------|-------------------------|
    Bb|-------------------------|-------------------------|
    Gb|-------------------------|-2-----2-2---4h5-4---2---|
    Db|/5-----5-5---5-----5-5---|-4-----4-4---4---4---4---|
    Ab|/5-----5-5---5-----5-5---|-4-----4-4---------------| \
    Eb|/3-----3-3---3-----3-3---|-2-----2-2---------------| \
    |x3
    eb|-------------------------|-------------------------| /
    Bb|-------------------------|-------------------------| /
    Gb|-------------------------|-5----(5-5---5-----5-5)--|
    Db|-5-----5-5---5-----5-5---|-5----(5-5---5-----5-5)--| (strum on first)
    Ab|-2-----2-2---2-----2-2---|-3----(3-3---3-----3-3)--| (2 times only)
    Eb|-0-----0-0---0-----0-0---|-0----(0-0---0-----0-0)--|
     
  2. drsherry

    drsherry Guitarist [SEER]

    cont..

    Bridge: (Guitar 1)
    eb|-------------------------|-------------------------|
    Bb|---12----12----12----12--|---10----10----10----10--|
    Gb|-----0-----0-----0-----0-|-----0-----0-----0-----0-|
    Db|-------------------------|-------------------------|
    Ab|-10----10----10----10----|\9-----9-----9-----9-----| \
    Eb|-------------------------|-------------------------| \
    |x3
    eb|-------------------------|-------------------------| /
    Bb|---8-----8-----8-----8---|---5-----5-----5-----5---| /
    Gb|-----0-----0-----0-----0-|-----0-----0-----0-----0-|
    Db|-------------------------|-------------------------|
    Ab|\7-----7-----7-----7-----|\3-----3-----3-----3----/|
    Eb|-------------------------|-------------------------|

    (Guitar 2)
    eb|-------------------------|-------------------------|
    Bb|-------------------------|-------------------------|
    Gb|-------------------------|-------------------------|
    Db|/5-----5-5---5-----5-5---|-4-----4-4---4-----4-4---|
    Ab|/5-----5-5---5-----5-5---|-4-----4-4---4-----4-4---| \
    Eb|/3-----3-3---3-----3-3---|-2-----2-2---2-----2-2---| \
    |x3
    eb|-------------------------|-------------------------| /
    Bb|-------------------------|-------------------------| /
    Gb|-------------------------|-5----(5-5---5-----5-5)--|
    Db|-2-----2-2---2-----2-2---|-5----(5-5---5-----5-5)--| (strum on first)
    Ab|-2-----2-2---2-----2-2---|-3----(3-3---3-----3-3)--| (2 times only)
    Eb|-0-----0-0---0-----0-0---|-0----(0-0---0-----0-0)--|

    Verse: (Guitar 1)
    eb|-------------------------|-------------------------|
    Bb|---5-----5-----7-----7---|---8-----8-----8-----8---|
    Gb|-----0-----0-----0-----0-|-----0-----0-----0-----0-|
    Db|-------------------------|-------------------------| x4
    Ab|-3-----3----/5-----5-----|/7-----7-----7-----7----\|
    Eb|-------------------------|-------------------------|

    (Guitar 2)
    eb|-------------------------|-------------------------|
    Bb|----<12>--------<12>-----|----<5>---------<12>-----|
    Gb|------<12>---------------|------<5>---------<12>---|
    Db|------------------<7>----|-------------------------|
    Ab|-------------------------|--------<7>---------<7>--|
    Eb|-------------------------|-------------------------|

    eb|-------------------------|-------------------------|
    Bb|----<12>--------<12>-----|----<5>-------------<12>-|
    Gb|------<12>---------------|------<5>-------<12>-----|
    Db|------------------<7>----|-------------------------|
    Ab|-------------------------|--------<7>--------------|
    Eb|-------------------------|-------------------------|

    eb|<12>---------------------|-------------------------|
    Bb|----<12>--------<12>-----|----<5>---------<12>-----|
    Gb|------<12>--------<7>----|------<5>---------<12>---|
    Db|-------------------------|-------------------------|
    Ab|-------------------------|--------<7>---------<7>--|
    Eb|-------------------------|-------------------------|

    eb|-------------------------|-------------------------|
    Bb|----<12>--------<12>-----|----<5>-------------<12>-|
    Gb|------<12>---------------|------<5>-------<12>-----|
    Db|------------------<7>----|-------------------------|
    Ab|-------------------------|--------<7>--------------|
    Eb|-------------------------|-------------------------|

    Chorus: (Guitar 1)
    eb|-------------------------|-------------------------|
    Bb|---12----12----12----12--|---10----10----10----10--|
    Gb|-----0-----0-----0-----0-|-----0-----0-----0-----0-|
    Db|-------------------------|-------------------------|
    Ab|-10----10----10----10----|\9-----9-----9-----9-----| \
    Eb|-------------------------|-------------------------| \
    |x3
    eb|-------------------------|-------------------------| /
    Bb|---8-----8-----8-----8---|---5-----5-----5-----5---| /
    Gb|-----0-----0-----0-----0-|-----0-----0-----0-----0-|
    Db|-------------------------|-------------------------|
    Ab|\7-----7-----7-----7-----|\3-----3-----3-----3----/|
    Eb|-------------------------|-------------------------|


    Bridge: (Guitar 1)
    eb|-------------------------|-------------------------|
    Bb|---12----12----12----12--|---10----10----10----10--|
    Gb|-----0-----0-----0-----0-|-----0-----0-----0-----0-|
    Db|-------------------------|-------------------------|
    Ab|-10----10----10----10----|\9-----9-----9-----9-----| \
    Eb|-------------------------|-------------------------| \
    x2
    eb|-------------------------|-------------------------| /
    Bb|---8-----8-----8-----8---|---5-----5-----5-----5---| /
    Gb|-----0-----0-----0-----0-|-----0-----0-----0-----0-|
    Db|-------------------------|-------------------------|
    Ab|\7-----7-----7-----7-----|\3-----3-----3-----3----/|
    Eb|-------------------------|-------------------------|


    Ending: (Guitar 1)
    eb|-------------------------|
    Bb|-------------------------|
    Gb|-(0)---------------------|
    Db|-------------------------|
    Ab|/10----------------------|
    Eb|-------------------------|
     

Share This Page