Submit - Drummer's Advice by Joint Family

Discussion in 'English Guitar Tabs - Submit or Request' started by ultrabot90, Oct 13, 2007.

  1. ultrabot90

    ultrabot90 Like fishes need bicycles

    Song - Drummer's Advice
    Artist - Joint Family
    Tuning - DADGBe (Drop D)
    http://www.indianguitartabs.com/showthread.php?t=31476
    I was looking for this song's tabs as well...I guess this is the main riff. Somebody please post the lyrics and the part from 1:56 mins onwards as well, I'll credit ya o.o
    Code:
    
    e-------------------------
    B-------------------------
    G-------------------------
    D-3/6-5-3--6-5-3--6-5-3---
    A-3/6-5-3--6-5-3--6-5-3---
    D-3/6-5-3--6-5-3--6-5-3---
    Same thing continues...When there's a para...
    e------------------------
    B------------------------
    G------------------------
    D-6-5--6-3h5-1h3---------
    A-6-5--6-3h5-1h3---------
    D-6-5--6-3h5-1h3---------
    Tabbed by ultrabot90
    
     
  2. alpha1

    alpha1 I BLUES!

    Should be :
    Intro
    D-0h6--5--0h3-------------
    A-0h6--5--0h3------------
    D-0h6--5--0h3-------------

    You may pick the notes instead of hammering to give more mean attack.


    Verse:
    D---
    A---
    D-0-6-0-5-0-3-5~(vibrato with bends) -0-6-0-5-0-3-


    The whole song is built upon that pattern.
     

Share This Page