Submit: Chords and Bass Tabs for Main Nay Kabhi - Junoon

Discussion in 'Pakistani Guitar Tabs - Submit or Request' started by Ridge87701, Aug 11, 2007.

  1. Ridge87701

    Ridge87701 New Member

    Maine Kabhi


    Intro
    |e|-2-0-----0----------------------------------------------------------------
    |B|-----3-----3-2---3-2-0---------------------------------------------------
    |G|------------------------3--------------------------------------------------
    |D|----------------------------------------------------------------------------
    |A|----------------------------------------------------------------------------
    |E|----------------------------------------------------------------------------

    Verse:

    Kis so[Bm]ch main doobi zindagi kis yaad main khoay raastay
    Kabhi tuj[A]h ko paanay ki justajo kabhi tujh ko khonay kay gham mujhey [Bm]

    [Bm]Yeh paana khona kuch nahin hona anhona kuch nahin
    Sub cha[A]on dhoop kay khwab hain tujhey milnay ko betaab hain

    Pre-Chorus:

    [F#]Jee kay bhi dekha mar[G]r kay bhi dekha
    Phir bhi main tanha rah[A]a

    Chorus:

    Me[Bm]in nay, tujh ko kabhi de[A]kha bhi nahin
    [F#]Oh ai[Bm]sa nahin keh koi n[A]ata bhi na[F#]hin


    R[Bm]angon ko dekha hai tas[A]weerain dekheen nah[F#]een
    Kh[Bm]waabon ko dekha hai ta[A]beerain dekheen nah[F#]een

    Verse:

    Kahin je[Bm]et uratay humsafar kahin khaak main mil kar reh gaey
    Koi ba[A]at na mujh say keh sakay meray hont hi sookh kar reh gaey
    Unhain me[Bm]ra piyaar na mil saka mujhe tera piyaar na mil saka
    Koi ho[A]on gee teri majboorian jo ab tak hain yeh doorian

    ===========================================

    Bass Tabs

    Intro riff
    G-----4------------2----------------------------------------------
    D---------4---4--------2---2-----5---4-2---4-2-----------------
    A--2--------2---0--------0----------------5------5-4-2-0----0-- X 2
    E-------------------------------3----------------------------2-----

    Main Power Riff - Verse 1

    G------------------------------------------------------------------------------------
    D--------------4------------------4--------------------4--------------------4------
    A--2---2-0-2----5-4--2--2-0-2----5-4---2-2-2-0-2----5-4--2-2-2-0-2---5-4--
    E------------------------------------------------------------------------------------
    (Twice)

    Then around prechorus

    G ---------------------------------------
    D -------------4------------------4-----
    A --2--2-0-2----5-4--2--2-0-2---5-4--
    E ---------------------------------------

    G -------------------------------------
    D ------------2------------------2------
    A -0--0-0-0---4-2--0-0-0-0-0---4-2-
    E ---------------------------------------

    Chorus
    G -------------------------------------------------------------------
    D -----4--2----------5---4-2---------4--2-0-4-2-0-----------2---
    A -----------5-4---------------5--0-------------------4-2-0-4---4-
    E --2-------------3--------------------------------------------------

    Then repeat the intro part again twice
    G------4----------2-----------------------------------------
    D---------4----------2--------5--4-2---4-2-----------------
    A--2--------2-0---------0-------------5------5-4-2-0---0--
    E ---------------------------3---------------------------2----

    Intro Again with minor variation
    G-----------4--------------------------------------------------------------
    D---------4---4-----2------------------------------------------------------
    A-2--4-5--------0------4--2---2-----------------------------------2-4-5-
    E------------------------------2------2--2-2-2-2-2-2--2-0-2-3-5--------


    G------4----------2-----------------------------------------------
    D----------4----------2-------------------------------------------
    A--2----------2-0-------0--------------------------------2-4-5--
    E-----------------------------2--2-2-2-2-2--2-0-2-3-5----------

    Main Power Riff - Verse 1

    G-----------------------------------------------------------------------------------
    D--------------4------------------4--------------------4--------------------------
    A--2---2-0-2----5-4--2--2-0-2----5-4---2-2-2-0-2----5-4--2~----------------
    E-----------------------------------------------------------------------------------

    Verse 2

    G---------------------------------------------------------------------------------
    D-------------4-------------------4--------------------2-------------------2-----
    A--2--2-0-2----5-4--2-2-2-0-2---5-4---0---0-0-0----4-2--0-0-0-0-0---4-2-
    E----------------------------------------------------------------------------------

    Chorus
    G -------------------------------------------------------------------
    D -----4--2----------5---4-2---------4--2-0-4-2-0-----------2---
    A -----------5-4---------------5--0-------------------4-2-0-4---4-
    E --2-------------3--------------------------------------------------

    G------4----------2-----------------------------------------
    D---------4----------2--------5--4-2---4-2-----------------
    A--2--------2-0---------0-------------5------5-4-2-0---0--
    E ---------------------------3---------------------------2----

    G-----------4--------------------------------------------------------------
    D---------4---4-----2------------------------------------------------------
    A-2--4-5--------0------4--2---2-----------------------------------2-4-5-
    E------------------------------2------2--2-2-2-2-2-2--2-0-2-3-5--------

    G------4----------2-----------------------------------------------
    D----------4----------2-------------------------------------------
    A--2----------2-0-------0--------------------------------2-4-5--
    E-----------------------------2--2-2-2-2-2--2-0-2-3-5----------


    LEAD

    G----------------------------------------------------------------------------------
    D-------------4-------------------4--------------------2-------------------2-----
    A--2--2-0-2----5-4--2-2-2-0-2---5-4---0---0-0-0----4-2--0-0-0-0-0---4-2-
    E----------------------------------------------------------------------------------
    ^
    Play this twice

    G -------------------------------------------------------------------
    D -----4--2----------5---4-2---------4--2-0-4-2-0-----------2---
    A -----------5-4---------------5--0-------------------4-2-0-4---4-
    E --2-------------3--------------------------------------------------

    End of lead - Gets Very Slow

    G------4----------2-----------------------------------------
    D---------4----------2--------5--4-2---4-2-----------------
    A--2--------2-0---------0-------------5------5-4-2-0---0--
    E ---------------------------3---------------------------2----
    Twice^^^^

    G------4----------2-----------------------------------------
    D---------4----------2--------5--4-2---4-2-----------------
    A--2--------2-0---------0-------------5------5-4-2-0---0--
    E ---------------------------3---------------------------2----

    G------4----------2-----------------------------------------
    D---------4----------2--------5--4-2---4-2-----------------
    A--2--------2-0---------0-------------5------5-4-2-0---0--
    E ---------------------------3---------------------------2----

    G-----------4--------------------------------------------------------------
    D---------4---4-----2------------------------------------------------------
    A-2--4-5--------0------4--2---2-----------------------------------2-4-5-
    E------------------------------2------2--2-2-2-2-2-2--2-0-2-3-5--------


    And thats about it.

    The slow part may not be accurate but its the same structure, so listen to it and then you'll easily figure it out.

    Well, I am a Bassist and honestly, there are VERY FEW hindi songs which I find even worth attempting on bass, because very few music directors in movies, and pop musicians pay attention to bass and the bass lines are either robotic, computerized sequenced, or very straight and flat, hence extremely boring.
    Only a few music director had a good ear for bass, like RD in a few Songs, Shankar Jaikishen oldies (The ones he lifted from The Beatles) and... Believe it or not... Bappi Lahiri (YES. He copied lots of songs and apparantly rather than indianizing it, like his counterparts, he used to lift is AS IT IS. Listen to the bassline of "Saare Haseen Yahan Naache Nacche, Auva Auva", its awsome bass, but straight lift from the original)

    So when I heard this Junoon song, I was instantly impressed.
    I then heard a lot of other Junoon songs as well, and the basslines are generally pretty neat. The only disappointing part is that the pattern remains the same in almost all the songs I heard. Basically the root note and the 5ths. So just make the shape of a power chord (Use 3 strings for powerchord rather than only 2) and then play all notes in sequence like arpeggio.

    For eg.
    D 3 5 7
    A 3 5 7
    E 1 3 5

    So once you know one, you know them all, only minor variations and playing around with the notes sequence and order.

    Anyway, hope you guys enjoy this bass tab.

    Let me know if there are any mistakes (I know there are 2, I have corrected them while playing but too lazy to do it here), lets see who can find them.


    Cheers everyone...

    Enjoy

    Rajat

    PS: Here is the link for the song if you don't have it.

    http://www.sangeetradio.com/music/Pa...ay Kabhi.wma
     

Share This Page