Submission: Call: Wujud The Whole Thing!!! Perfect...

Discussion in 'Pakistani Guitar Tabs - Submit or Request' started by limaj_daas, May 25, 2006.

  1. limaj_daas

    limaj_daas Guitar Pro Maniac

    i can't paste the song in here cuz it's too long... so u'll have to download the attachment...

    oh and verse riff will be coming soon.
     

    Attached Files:

  2. Orange Guitar

    Orange Guitar IGT's ALLROUNDER

    Intro is gud...mistakes in chorus....chords not sounding perfect....YAR WHAT IS TREMOLO PICKIN???? Xulfi has a stop tailed guitar...no tremolo in it :) it should be Alternate Pickin!!...u tried very hard and gud in the solo...some parts are original...but there are some mistakes...chords are wrong...sorry to say that n' dun mind...i mean no offense!
     
  3. limaj_daas

    limaj_daas Guitar Pro Maniac

    yo orange, i had someone correct me on a few parts...:

    In the intro, the second measure goes like:

    e ---------------------------------------------------------------------|
    B ---------------------------------------------------------------------|
    G ---------------------------------------------------------------------|
    D -12p10-10-10-9-9p7-10-10-10-10-10-9-9-7h10-10-10-9-9-9-1-1-1-1-1-1-1-|
    A -12p10-10-10-9-9p7-10-10-10-10-10-9-9-7h10-10-10-9-9-9-1-1-1-1-1-1-1-|
    D -12p10-10-10-9-9p7-10-10-10-10-10-9-9-7h10-10-10-9-9-9-1-1-1-1-1-1-1-|



    chorus actually goes like:

    e ------------------------------------|
    B ------------------------------------|
    G ------------------------------------|
    D -3~-3-3-3-3-3-3-3-/5~-5-5-5-5-5-5-5-|
    A -3~-3-3-3-3-3-3-3-/5~-5-5-5-5-5-5-5-|
    D -3~-3-3-3-3-3-3-3-/5~-5-5-5-5-5-5-5-|

    e --------------------------------------|
    B --------------------------------------|
    G --------------------------------------|
    D -0-00-3-0-5-0-6-0-555--0-00-3-3-5-3-0-|
    A -0-00-3-0-5-0-6-0-555--0-00-3-3-5-3-0-|
    D -0-00-3-0-5-0-6-0-555--0-00-3-3-5-3-0-|

    and this lead in solo:

    e-------------------------------------------------|
    B-15-15-17-15-15-19-15-15-17-15-15-19-15-15-19-15-|
    G-------------------------------------------------|
    D-------------------------------------------------|
    A-------------------------------------------------|
    D-------------------------------------------------|

    move it up to the e string.

    and verse riff is:

    VERSE RIFF IM NOT REALLY SURE BUT ITS ALONG THESE LINES

    1st Part (TWICE)

    |-----------------------------------------|
    |-----------------------------------------|
    |-----------------------------------------|
    |-0-0-0-0----0-0-0-0----0-0---10-10-10-10-|
    |-0-0-0-0----0-0-0-0----0-0---10-10-10-10-|
    |-0-0-0-0----0-0-0-0----0-0---10-10-10-10-|


    |--------------------------------------|
    |--------------------------------------|
    |--------------------------------------|
    |-0-0-0-0----0-0-0-0----0-0---8-8-8-8--|
    |-0-0-0-0----0-0-0-0----0-0---8-8-8-8--|
    |-0-0-0-0----0-0-0-0----0-0---8-8-8-8--|

    2nd Part (TWICE)

    |---------------------------------------|
    |---------------------------------------|
    |---------------------------------------|
    |---------------------------------------|
    |-0-0-0-10-0-0-9-0-0-7-0-0--10-10-10-10-|
    |-0-0-0-10-0-0-9-0-0-7-0-0--10-10-10-10-|


    |------------------------------------|
    |------------------------------------|
    |------------------------------------|
    |------------------------------------|
    |-0-0-0-10-0-0-9-0-0-7-0-0--8-8-8-8--|
    |-0-0-0-10-0-0-9-0-0-7-0-0--8-8-8-8--|

    Thanks again to Ahmed Nadeem(a hell lot)...

    oh and ya u might wanna try this instrumental link to wujud where is stripped wujud of it's vocal pride..:

    http://www.justupit.com/7e12b629e4668620b3c668e00ad9d196
     
  4. Orange Guitar

    Orange Guitar IGT's ALLROUNDER

    the devocalized Wujud is awsome...but dude....chords are still wrong...intro is gud!!!
     
  5. limaj_daas

    limaj_daas Guitar Pro Maniac

    Then help me get the right bloody chords... And in which parts are the chords wrong?
     
  6. slipknot_555

    slipknot_555 RuHH..

    hey limaj!! which software did u use for gettin juss instrumental of Wujud??
     
  7. Orange Guitar

    Orange Guitar IGT's ALLROUNDER

    the chords of the chorus 2nd part are 000xxx, 333xxx, 555xxx, 666xxx, 777xxx, 000xxx, 333xxx, 555xxx, 777xxx, 000xxx. n' the verse 2nd part which is on palm muting is only based on D5, C5 and A#5. He plays open D5 and then plays C5 several times then ends on A#5!
     
  8. Quadrophenia

    Quadrophenia New Member

    nice work limaj and orange.. keep it up you two!!
     
  9. limaj_daas

    limaj_daas Guitar Pro Maniac

    @ Slipknot555

    I used cheat codes... :p

    @ Orange Guitar

    Will try in a while... And will also ask xulfi

    @ Quadrophenia

    Thanks man.

    btw, if u need anything else.. just ask.
     

Share This Page