Submission: Call - Kal Hamara Hai...

Discussion in 'Pakistani Guitar Tabs - Submit or Request' started by limaj_daas, Jul 17, 2006.

  1. limaj_daas

    limaj_daas Guitar Pro Maniac

    Haven't tabbed some stuff for quite some time... thought i might just finish this thing up:

    here's the intro full wid fx and piano and wutever...


    Wierdo FX:

    E ----------------
    B ----------------
    G ----------------
    D ----------------
    A -0-5-4--4-2-0-0-
    D ----------------

    Piano Treble:

    E --------3-------
    B -3-5--3---7-3-5-
    G -0--------------
    D -0--------------
    A ----------------
    D ----------------

    Wierdo FX:

    E ---10-9-10----------------------
    B -8---------8-10-10--12-8-8-10---
    G ------------------------------7-
    D --------------------------------
    A --------------------------------
    D --------------------------------

    E -----10-9----10----
    B ----------10----8~-
    G -7h9---------------
    D -------------------
    A -------------------
    D -------------------

    Piano Treble:

    E -12-10-9-10-12-
    B ---------------
    G ---------------
    D ---------------
    A ---------------
    D ---------------

    Guitar:

    E ----------------------------------------------------------------
    B ----------------------------------------------------------------
    G ---6-7------4-7-------------7-----7h9p7---7-----7-----7h9p7---7-
    D -------7--------7-9-------7---7-7-------7-----7---7-7-------7---
    A -0--------------------------------------------------------------
    D ----------5---------0-0-0-------------------0-------------------

    repeat the end guitar part a few times... i haven't tabbed the verse yet but here's the chorus (courtsey ahmed nadeem):

    (D) kaho saath hein ham (A) tau

    yeh pal hamara (G)hai

    kal hamara (Bm)hai (A)

    and here's the solo:

    E -5-7-3-2-0-2-5p3-5p3-2-0~~---|
    B -----------------------------|
    G -----------------------------|
    D -----------------------------|
    A -----------------------------|
    D -----------------------------|

    E -5-7-3-2-0--------------------------------------------------------------------|
    B -----------3-2-3/5-3~-3-3-3-5p3p2-3~-5p3p2-3~-3/7-5-5p3p2-3~-5p3p2-3~-2---2---|
    G ------------------------------------------------------------------------4-----|
    D ------------------------------------------------------------------------------|
    A ------------------------------------------------------------------------------|
    D ------------------------------------------------------------------------------|

    E -------------------------------------------------|
    B -5p3p2-3~-5p3p2-3~-3/7-5~-7-/10-/15-14-10-/5~~---|
    G -------------------------------------------------|
    D -------------------------------------------------|
    A -------------------------------------------------|
    D -------------------------------------------------|

    as usual copy paste into notepad fo better viewin... do comment ppl and rep. i might update it but i'm sorta busy wid a load of other tabs right now...

    keep on rockin'!
     
    Aka Oz likes this.
  2. rizaaj

    rizaaj Forum Leader

    woohoo.. cool man.. nice work.. u deserve a king's crown in paki tabs section.. keep rockin..
     
  3. limaj_daas

    limaj_daas Guitar Pro Maniac

    thanks man... ur one of the few ppl that care to visit threads of submission rather than post threads of requests...
     
  4. Aka Oz

    Aka Oz /\K/\ - Ozy

    its a very good song , nd da vdo is very good.....Nice Wrk ..Chk u repz
     
  5. limaj_daas

    limaj_daas Guitar Pro Maniac

    Thankx fo appreciatin my work
     

Share This Page