Submission : Aerosmith's greatest hits

Discussion in 'English Guitar Tabs - Submit or Request' started by Morbid_Angel, Aug 21, 2006.

  1. Morbid_Angel

    Morbid_Angel Sid the sloth

    @paranoidrohan
    This is for you brother.

    This does not have all the songs of Aerosmith but i guess it might have what ure looking for. If it aint here..i will get it for ya :).

    Note : This is not my work again. If any1 wants to give credit to the person..download the book and see who tabbed it. Who cares anyway?

    The song is in Stave as well as T A B notations.

    Here's the link :-
    http://rapidshare.de/files/30186395/guitar_-_tab_book_-_aerosmith_greatest_hits.pdf.html
    Its a 16mb file.

    Hope ya like it guyz and rohan ;)
     
  2. Morbid_Angel

    Morbid_Angel Sid the sloth

    If u want i can also type out the tabs of particular songs u like.
    Just request dont be shy ;)
     
  3. paranoid13rohan

    paranoid13rohan .: iNDiaN iDioT 3.0 :.

    can u plz attach d pdf directly here !!!

    i' havin a prob dwnloadin it !!!
     
  4. Morbid_Angel

    Morbid_Angel Sid the sloth

    pdf size is too big to attach directly. Does the link open?
     
  5. paranoid13rohan

    paranoid13rohan .: iNDiaN iDioT 3.0 :.

    CRAZY plz !!!


    @all ... rn't u guys intrst in Aerosmith ???
     
  6. Morbid_Angel

    Morbid_Angel Sid the sloth

    Which 1 in particular do u want?
     
  7. paranoid13rohan

    paranoid13rohan .: iNDiaN iDioT 3.0 :.

    i said it ... "CRAZY" ...
     
  8. Morbid_Angel

    Morbid_Angel Sid the sloth

    sorry dude i thought u were callin others crazy lol

    ok u'll get it.
     
  9. Morbid_Angel

    Morbid_Angel Sid the sloth

    Tabs.

    Code:
    Intro 
    G|-------------------------------|---------------------------------------| 
    D|-------------------------------|---------------------------------------| 
    A|-----------------5----5--5--5--|--5/7----------------5------5----5--5--| 
    E|-5----5--2----2----------------|-----5----5--2----2-------5----5-------| 
     
     
    Verso 
    |-----------------------------------|---------------------------------------| 
    |-----------------------------------|---------------------------------------| 
    |-----------5----5/9----95----7-5--|---------5----------5/9----95----5-5----| 
    |--2/5----5-------------------------|--5----5-------------------------------| 
     
     
    Pre-Refrao 
    |------------------------------------| 
    |----------4---4---------------------| 
    |--7----7---------4---------------5--| 
    |--------------------2----3----3-----| 
     
    |-----------------------------------------------------------| 
    |---------------4------4------------------------------------| 
    |--5----7----7------------4---------------5--5--5--7--7--7--| 
    |----------------------------2----3----3--------------------| 
     
     
    Refrao 
    |----------------------------| 
    |----------------------------| 
    |----------------------------| 
    |--5------5--2----------2--5-| 
     
    |---------7--------7------------------------|----------------------| 
    |------------7--------7---------------------|----------------------| 
    |--5------------5--------5------------------|----------------------| 
    |---------------------------------5---------|----5--2----------2--5| 
     
    |--------------------------|-------------------------|-----------------------| 
    |--------------------------|-------------------------|-----------------------| 
    |--5--5--5--5--5--5--------|-------------------------|-----------------------| 
    |--------------------0--0--|--0--0--2--4--5----5--5--|--5--4--2----------2-5-| 
                                                                           
    |---------7--7-7-7--7----|--------7--4---------|----------------------| 
    |------------------------|---------------------|----------------------| 
    |--5---------------------|------------------2--|--5--6--7--------7----| 
    |------------------------|---------------------|----------------------| 
     
    |---------------------|---------------------|-----------------------| 
    |----------------4----|----2------0--0------|-----------------7-----| 
    |--4----------4-------|---------------------|----5--5------8-----8--| 
    |---------------------|---------------------|-----------------------| 
     
     
    Verso 2 
    |-----------------------------------|-----------------------------------| 
    |-----------------------------------|-----------------------------------| 
    |-----------5----5/9----95----7-5--|-----------5----5/9----95----7-5----| 
    |----5----5-------------------------|----5----5-------------------------| 
     
     
    Pre-Refrao 
    |----------------------------------------| 
    |--------------4---4---------------------| 
    |--5-5-7----7---------4---------------5--| 
    |------------------------2----3----3-----| 
                                                                          
    |-----------------------------------------------------------| 
    |---------------4------4------------------------------------| 
    |--5----7----7------------4---------------5--5--5--7--7--7--| 
    |----------------------------2----3----3--------------------| 
     
     
    Refrao 
    |----------------------------| 
    |----------------------------| 
    |----------------------------| 
    |--5------5--2----------2--5-| 
     
    |---------7--------7------------------------|----------------------| 
    |------------7--------7---------------------|----------------------| 
    |--5------------5--------5------------------|----------------------| 
    |---------------------------------5---------|----5--2----------2--5| 
     
    |--------------------------|-------------------------|-----------------------| 
    |--------------------------|-------------------------|-----------------------| 
    |--5--5--5--5--5--5--------|-------------------------|-----------------------| 
    |--------------------0--0--|--0--0--2--4--5----5--5--|--5--4--2----------2-5-| 
                                                                           
    |---------7--7-7-7--7----|--------7--4---------|----------------------| 
    |------------------------|---------------------|----------------------| 
    |--5---------------------|------------------2--|--5--6--7--------7----| 
    |------------------------|---------------------|----------------------| 
     
    |---------------------|---------------------|-----------------------| 
    |----------------4----|----2------0--0------|-----------------7-----| 
    |--4----------4-------|---------------------|----5--5------8-----8--| 
    |---------------------|---------------------|-----------------------| 
     
     
    Durate o Solo 
    |----------|----------------------|--------------------| 
    |----------|----------------------|--------------------| 
    |----------|----------------------|--5--5--5--5--5--5--| 
    |-5--------|----5--2----------2-5-|--------------------| 
                                                                               
    |-------------------------------|----------------------| 
    |-------------------------------|----------------------| 
    |-------------------------------|----------------------| 
    |--0--0----0--0--2--4--5--------|----5--2----------2-5-| 
     
    |---------7--------7--------------------------| 
    |------------7--------7-----------------------| 
    |--5------------5----------5------5-----------| 
    |------------------------------------5--------| 
                                                                               
    |----------------------|--------------------------| 
    |----------------------|--------------------------| 
    |----------------------|--5--5--5--5--5--5--------| 
    |----5--2----------2-5-|--------------------0--0--| 
     
    |-----------------------|----------------------| 
    |-----------------------|----------------------| 
    |-----------------------|----------------------| 
    |--0--0--2--4--5--------|----5--2----------2-5-| 
     
    |---------7--------7--------------------------| 
    |------------7--------7-----------------------| 
    |--5------------5----------5------5-----------| 
    |------------------------------------5--------| 
                                                                             
    |----------------------|--------------------------|-----------------------| 
    |----------------------|--------------------------|--------------4--------| 
    |----------------------|--5--5--5--5--5--5--------|-----------------------| 
    |----5--2----------2-5-|--------------------0--0--|--0--0--2--4-----------| 
     
     
    Ponte 
    |----------|---------------------|--------------------|-------------------| 
    |----------|---------------------|-----------4--------|------2------------| 
    |--7----7--|--5----------5--5----|--------5-----------|-------------------| 
    |----------|---------------------|--------------------|-------------------|
    Tabs - To be Continued.

    Chords - See next reply..message was too long
     
  10. Morbid_Angel

    Morbid_Angel Sid the sloth

    Tabs Continued.
    Code:
                                                                 
    Refrao 
    |-------------------------|--------------------|---------------7--------| 
    |-------------------------|--------------------|------------------7-----| 
    |--5--5--5--5--5--5-------|--------------------|--------5------------5--| 
    |--------------------5----|--------5--2--------|----2-5-----------------| 
                                                                             
    |--7--------------------|--------------------|--------------------------| 
    |-----7-----------------|--------------------|--------------------------| 
    |--------5------5-------|--------------------|--------5--5--5--5--5--5--| 
    |------------------5----|--------5--2--------|----2-5-------------------| 
                                                                             
    |-------------------------|--------------------|---------------7--------| 
    |-------------------------|--------------------|------------------7-----| 
    |-------------------------|--------------------|--------5------------5--| 
    |--0--0--0--0--2--4--5----|--------5--2--------|----2-5-----------------| 
     
    |--7--------------------|--------------------|--------------------------| 
    |-----7-----------------|--------------------|--------------------------| 
    |--------5------5-------|--------------------|--------5--5--5--5--5--5--| 
    |------------------5----|--------5--2--------|----2-5-------------------| 
                                                                             
    |-------------------------|--------------------|---------------7--------| 
    |-------------------------|--------------------|------------------7-----| 
    |-------------------------|--------------------|--------5------------5--| 
    |--0--0--0--0--2--4--5----|--------5--2--------|----2-5-----------------| 
     
    |--7--------------------|--------------------|--------------------------| 
    |-----7-----------------|--------------------|--------------------------| 
    |--------5------5-------|--------------------|--------5--5--5--5--5--5--| 
    |------------------5----|--------5--2--------|----2-5-------------------| 
                                                                             
    |-------------------------|--------------------|---------------7--------| 
    |-------------------------|--------------------|------------------7-----| 
    |-------------------------|--------------------|--------5------------5--| 
    |--0--0--0--0--2--4--5----|--------5--2--------|----2-5-----------------| 
                                                                             
    |--7--------------------|--------------------|--------------------------| 
    |-----7-----------------|--------------------|--------------------------| 
    |--------5------5-------|--------------------|--------5--5--5--5--5--5--| 
    |------------------5----|--------5--2--------|----2-5-------------------| 
                                                   
    |-------------------------|------------------| 
    |-------------------------|------------------| 
    |-------------------------|------------------| 
    |--0--0--0--0--2--4--5----|------------------|
    Chords :

    Code:
    Come 'ere baby
    A                          F#m                                   D
    You know you drive me up a wall the way you make good of all the nasty
                                      Dm
    tricks you pull. Seems like we're makin' up more than we're makin'
         A                             F#m
    love and it always seems you got somn' on your mind other than me
    D                            Dm
    Girl, you got to change your crazy ways, you hear me
    
    A          D                                               F#m
    Say you're leavin' on a seven thirty train and that you're headin' out
            D
    to Hollywood
    A                    D                                       F#m
    Girl you been givin' me that line so many times it kinda gets like
                     D
    feelin' bad looks good, yeah
    
    E          F#m            G        D
    That kinda lovin' turns a man to a slave
    E          F#m            G                D    E
    That kinda lovin' sends a man right to his grave
    
         A      F#m    D          Dm
    I go crazy, crazy, baby, I go crazy
    A           F#m             Dm              E
    You turn it on, then you're gone, yeah, you drive me
    A      F#m    D             Dm
    Crazy, crazy, crazy for you baby
    Bm         E         C#m             F#m E  D   Dm
    What can I do, honey, I feel like the color blue
    
    A                      D                                     F#m
    You're packin' up your stuff and talkin' like it's tough and tryin' to
                              D
    tell me that it's time to go, yeah
    A                    D                                    F#m
    But I know you ain't wearin' nothin' underneath that overcoat
                   D
    And it's all a show, yeah
    
    E          F#m                   G             D
    That kinda lovin' makes me wanna pull down the shade, yeah
    E          F#m                 G
    That kinda lovin' yeah now I'm never, never, never, never
    D              E
    gonna be the same
    
         A      F#m    D          Dm
    I go crazy, crazy, baby, I go crazy
    A           F#m             D               E
    You turn it on, then you're gone, yeah, you drive me
    A      F#m    D             Dm
    Crazy, crazy, crazy for you baby
    Bm         E     C#m                 F#m E  D   Dm
    What can I do, honey, I feel like the color blue
    A             F#m                D         E
    I'm losin' my mind, girl, 'cause I'm goin' crazy
    
    
    A     F#m     D     Dm
    A     F#m     D     E
    A     F#m     D     Dm
    A     F#m     D     E
    
    F#m E       D
    I need your love, honey yeah
    F#m E       D
    I need your love
    
    A      F#m    D             Dm
    Crazy, crazy, crazy for you baby
    A             F#m               D         E
    I'm losin' my mind, girl 'cause I'm goin' crazy
    A      F#m    D             Dm
    Crazy, crazy, crazy for you baby
    A           F#m             D             E
    You turn it on, then you're gone, yeah, you drive me
    The chords used: (Note : None of these chords are inverted).
    A: X02220
    Bm: Standard barre on 2nd fret.
    C#m : Standard barre on 4th fret.
    D: XX0232
    Dm: XX0231
    E: 022100
    F#m: Standard barre on 2nd fret.
    G: 320033

    These chords and tabs are taken from www.e-chords.com (These were not present in the book or i would have shown the standard notations too).

    @Paranoid
    This wat ya wanted ryte? =P

    Rock On.
     
    paranoid13rohan likes this.
  11. paranoid13rohan

    paranoid13rohan .: iNDiaN iDioT 3.0 :.

    thanx a lot ... REPs added :rock: :rock:
     
  12. Morbid_Angel

    Morbid_Angel Sid the sloth

    thanks alot for the reps bro..really precious for me :D
     
  13. Morbid_Angel

    Morbid_Angel Sid the sloth

    no1 else for Aerosmith? cmon on guyz comment ?
     
  14. paranoid13rohan

    paranoid13rohan .: iNDiaN iDioT 3.0 :.

    :think: aren't those the bass tabs that you posted ??? :think:
     
  15. Morbid_Angel

    Morbid_Angel Sid the sloth

    i got no idea :\

    i'll check
     
  16. Morbid_Angel

    Morbid_Angel Sid the sloth

    is this ok? i took it from ure own ultimate-guitar.com :|

    Tabbed By Julian Loor
    1972 Plymouth Fury III
    julianloor_13@hotmail.com

    Code:
    Harmonica Intro arranged for guitar
    
    e|--------12-12-12-12--------------------------------------------|
    B|-12b14=-------------12b14r12-----------------------------------|
    G|-----------------------------11-11-12b14-12b14-12b14=-12b14r12-|
    D|---------------------------------------------------------------|
    A|---------------------------------------------------------------|
    E|---------------------------------------------------------------|
    
    
    e|----------12-12-12-12-------------------------------------------------|
    B|-10-12b14-------------10-10-12b14-10-12b14-10-12b14-------------------|
    G|----------------------------------------------------12b14-12b14-12b14-|
    D|----------------------------------------------------------------------|
    A|----------------------------------------------------------------------|
    E|----------------------------------------------------------------------|
    
    A                          F#m                                   D
    You know you drive me up a wall the way you make good of all the nasty
                                      Dm
    tricks you pull. Seems like we're makin' up more than we're makin'
         A                             F#m
    love and it always seems you got somn' on your mind other than me
    D                            Dm
    Girl, you got to change your crazy ways, you hear me
    A          D                                               F#m
    Say you're leavin' on a seven thirty train and that you're headin' out
            D
    to Hollywood
    
    
    e|---------------|
    B|---------------|
    G|-----2-4/6-4-2-|
    D|-2h4---4/6-4-2-|
    A|---------------|
    E|---------------|
    
    A                    D                                       F#m
    Girl you been givin' me that line so many times it kinda gets like
                     D
    feelin' bad looks good, yeah
    
    e|----------12-------12-|
    B|-10-12b14----12b14----|
    G|----------------------| 
    D|----------------------| Harmonica Part
    A|----------------------|
    E|----------------------|
    
    E          F#m            G        D
    That kinda lovin' turns a man to a slave
    
    e|-------------------5---5/10-10----10----|
    B|---------------5/7-----5/10----10----10-|
    G|-----2-4-4b6----------------------------|
    D|-2-4------------------------------------| Guitar Part
    A|----------------------------------------|
    E|----------------------------------------|
    
    E          F#m            G                D    E
    That kinda lovin' sends a man right to his grave
    
    e|-------------------5---5/10-10----10/12-12----|
    B|---------------5/7-----5/10----10-10/12----12-|
    G|-----2-4-4b6----------------------------------|
    D|-2-4------------------------------------------| Guitar Part
    A|----------------------------------------------|
    E|----------------------------------------------|
    
         A      F#m    D          Dm
    I go crazy, crazy, baby, I go crazy
    A           F#m             Dm              E
    You turn it on, then you're gone, yeah, you drive me
    A      F#m    D             Dm
    Crazy, crazy, crazy for you baby
    Bm         E         C#m             F#m E  D   Dm
    What can I do, honey, I feel like the color blue
    
    MANDOLIN PART ARRANGED FOR GUITAR
    
    e|-9-9-9-9-9-9-10-10-12-12-14-14-14-14-12-12-10-10-9-9-7-7-5-5-5-5-|
    B|-----------------------------------------------------------------|
    G|-----------------------------------------------------------------|
    D|-----------------------------------------------------------------|
    A|-----------------------------------------------------------------|
    E|-----------------------------------------------------------------|
    
    e|-------------------|
    B|-------------------|
    G|-----2-4-4b6-4b6-2-|
    D|-2h4---------------|Guitar Part
    A|-------------------|
    E|-------------------|
    
    A                      D                                     F#m
    You're packin' up your stuff and talkin' like it's tough and tryin' to
                             D
    tell me that it's time to go, yeah
    A                    D                                    F#m
    But I know you ain't wearin' nothin' underneath that overcoat
                   D
    And it's all a show, yeah
    
    MANDOLIN 2ND PART
    
    e|-12-12-12-12-14-14-16-16-17-17-17-17-17-19-19-21-21-21-19-19-17-17-14-14-|
    B|-------------------------------------------------------------------------|
    G|-------------------------------------------------------------------------|
    D|-------------------------------------------------------------------------|
    A|-------------------------------------------------------------------------|
    E|-------------------------------------------------------------------------|
    
    E          F#m                   G             D
    That kinda lovin' makes me wanna pull down the shade, yeah
    
    e|-------------------5---5/10-10----10----|
    B|---------------5/7-----5/10----10----10-|
    G|-----2-4-4b6----------------------------|
    D|-2-4------------------------------------| Guitar Part
    A|----------------------------------------|
    E|----------------------------------------|
    
    E          F#m                 G
    That kinda lovin' yeah now I'm never, never, never, never
    D              E
    gonna be the same
    
    e|-------------------5---5/10-10----10/12-12----|
    B|---------------5/7-----5/10----10-10/12----12-|
    G|-----2-4-4b6----------------------------------|
    D|-2-4------------------------------------------| Guitar Part
    A|----------------------------------------------|
    E|----------------------------------------------|
    
         A      F#m    D          Dm
    I go crazy, crazy, baby, I go crazy
    A           F#m             D               E
    You turn it on, then you're gone, yeah, you drive me
    A      F#m    D             Dm
    Crazy, crazy, crazy for you baby
    Bm         E     C#m                 F#m E  D   Dm
    What can I do, honey, I feel like the color blue
    A             F#m                D         E
    I'm losin' my mind, girl, 'cause I'm goin' crazy
    
    SOLO
    
    e|-----------------------------------------------|
    B|-----------------------------------------------|
    G|-----------------------------------------------|
    D|---------------------------------------2-2h4-2-|
    A|-2bu-2bu-2bu-2bu-2bu-2bu-2bu-2bu-2bu 0---------|
    E|-----------------------------------------------|
    
    e|-----------------------------------|
    B|---------------------------2-5-5/7-|
    G|-----2-4bu~--5b7-4-4-2-4/6---------|
    D|-2-4-------------------------------|
    A|-----------------------------------|
    E|-----------------------------------|
    
    e|-------------------------------|
    B|-12b14-10-13b15-12b13-12b13-10-|
    G|-------------------------------|
    D|-------------------------------|
    A|-------------------------------|
    E|-------------------------------|
    
    e|------------------------------------------|
    B|------10-10------10-10------10-10------10-|
    G|-9h11-------9h11-------9h11-------9h11----|
    D|------------------------------------------|
    A|------------------------------------------|
    E|------------------------------------------|
    
    e|-10/17-17----17----19b21-17-------14--------------|
    B|-10/17----17----17----------17b19----17-14-16b18~-|
    G|--------------------------------------------------|
    D|--------------------------------------------------|
    A|--------------------------------------------------|
    E|--------------------------------------------------|
    
    e|-----------------------------------------------|
    B|----------------------17b19-17-15-15h17--------|
    G|-------14h16-16b18-14-------------------16b18~-|
    D|-14h16-----------------------------------------|
    A|-----------------------------------------------|
    E|-----------------------------------------------|
    
    e|-17----17----17----17----22b24-22b24-22b24-17-|
    B|----17----17----17----17----------------------|
    G|----------------------------------------------|
    D|----------------------------------------------|
    A|----------------------------------------------|
    E|----------------------------------------------|
    
    e|-----------------------------------------------------|
    B|-------17-------17-------17-------17-------17--------|
    G|-19b21----19b21----19b21----19b21----19b21----19b21~-|
    D|-----------------------------------------------------|
    A|-----------------------------------------------------|
    E|-----------------------------------------------------|
    
    F#m E       D
    I need your love, honey yeah
    
    e|-------------------|
    B|-17/19-17~--14h15~-|
    G|-------------------|
    D|-------------------|
    A|-------------------|
    E|-------------------|
    
    F#m E       D
    I need your love
    
    e|-------------------------------|
    B|-17/19-17b19r17b19r17--14h15e~-|
    G|-------------------------------|
    D|-------------------------------|
    A|-------------------------------|
    E|-------------------------------|
    
    A      F#m    D             Dm
    Crazy, crazy, crazy for you baby
    A             F#m               D         E
    I'm losin' my mind, girl 'cause I'm goin' crazy
    A      F#m    D             Dm
    Crazy, crazy, crazy for you baby
    A           F#m             D             E
    You turn it on, then you're gone, yeah, you drive me
    
    A      F#m    D             Dm
    uuhhh uuuhhh uuuhhhh uuuhhhh uuuuhhh
    
    e|--------17--------19-------21-|
    B|--12/14-----14/15----15/17----|
    G|------------------------------|
    D|------------------------------|
    A|------------------------------|
    E|------------------------------|
    
    A      F#m    D              	E
    uuhhh uuuhhh uuuhhhh uuuhhhh uuuuhhh
    
    A      F#m    D             Dm
    yeah yeah yeah yeah yeah yeah yeah
    Is this what u needed?
     
  17. Morbid_Angel

    Morbid_Angel Sid the sloth

    another version of the solo

    Play which one u like.

    Taken from TabCrawler.

    Code:
    e|------------------------------------------------------------------
    
    B|------------------------------------------------------------------
    
    G|-------------------------------------2---4-4BU-4BU HOLD---2-4-2~---
    
    D|---------------------4bu-4bd-2~---4-------------------------------
    
    A|--2bu (9 times)---0-----------------------------------------------
    
    E|------------------------------------------------------------------
    
    
    
                                                           < 4 TIMES >
    
    
    
    e|-----------------2------7BU--5-----8BU-7BU--7--5--5--------5-5----
    
    B|----------2---5----------------5-----------------------5^7--------
    
    G|----4BU-----------------------------------------------------------
    
    D|------------------------------------------------------------------
    
    A|------------------------------------------------------------------
    
    E|------------------------------------------------------------------
    
    
    
    
    
    
    
    e|--------10----10----10-----10-----10-----10-----17------17--------
    
    B|---5/10----10----10----10-----10-----10-------------17------17----
    
    G|------------------------------------------------------------------
    
    D|------------------------------------------------------------------
    
    A|------------------------------------------------------------------
    
    E|------------------------------------------------------------------
    
    
    
    
    
    
    
    e|---19BU---17----------14------------------------------------------
    
    B|--------------17BU--------17---14---------------------------------
    
    G|------------------------------------16BU----------14--16-14BU-----
    
    D|-------------------------------------------14^16------------------
    
    A|------------------------------------------------------------------
    
    E|------------------------------------------------------------------
    
    
    
                                 < 4 TIMES, FAST >
    
    
    
    e|-------------------------------17-----------------21BU-21BU-21BU--
    
    B|-----------17BU--17---------------17------------------------------
    
    G|----------------------16BU~---------------------------------------
    
    D|-16--14-----------------------------------------------------------
    
    A|------------------------------------------------------------------
    
    E|------------------------------------------------------------------
    
    
    
    
    
              < 8 TIMES >
    
    e|--17--------------------------------------------------------------
    
    B|----------------17------------------------------------------------
    
    G|---------19BU-----------------------------------------------------
    
    D|------------------------------------------------------------------
    
    A|------------------------------------------------------------------
    
    E|------------------------------------------------------------------
     
  18. Morbid_Angel

    Morbid_Angel Sid the sloth

    Guyz atleast some comments plz?

    Or is this post totally useless?
     
  19. paranoid13rohan

    paranoid13rohan .: iNDiaN iDioT 3.0 :.

    ^^ yeah, dat's d thing i was lukin 4 :music: ... thanks 4 workin so hard 4 me :rock: ...
     
  20. Morbid_Angel

    Morbid_Angel Sid the sloth

    oi np brotha i just love doin this ;)
     

Share This Page