sub-tabs, stairway to heaven

Discussion in 'English Guitar Tabs - Submit or Request' started by drsherry, Feb 3, 2007.

  1. drsherry

    drsherry Guitarist [SEER]

    Tuning: E-A-D-G-B-e


    ----------5--7--------7--8--------8--2--------2--0-----------0----------------
    -------5--------5-----------5-----------3-----------1-----1-----1-------------
    ----5--------------5-----------5-----------2-----------2-----------2--0--2-2--
    -7-----------6-----------5-----------2-----------3----------------------------
    ----------------------------------------------------------------------2--0-0--
    ------------------------------------------------------------------------------


    ---------------------7--------7--8--------8--2--------2--0-----------0--------
    ------------------5-----5-----------5-----------3-----------1-----1----1------
    ---------------5-----------5-----------5-----------2-----------2---------2----
    ------------7--------6-----------5-----------4-----------3--------------------
    -0/8--7--0--------------------------------------------------------------------
    ------------------------------------------------------------------------------


    --------------------------0--2--------2--0--------0---------------------------
    --------------------------------3-----------1--------0-----------1--------1---
    -0--2-2----------------0-----------3-----------2--------2-----------0---------
    --------------------2--------0-----------3-----------------------------2------
    -2--0-0----0--2--3-----------------------------------0-----0--2--3------------
    ------------------------------------------------------------------------------


    -3--------3--3p2--2-2----------------------2--------2--0--------0-------------
    ----0--------3----3-3-------------------1-----3-----------1--------0----------
    -------0-----2----2-2----------------0-----------2-----------2--------2-------
    -------------0----0-0-------------2--------0-----------3----------------------
    -------------------------0--2--3-----------------------------------0-----0----
    -3----------------------------------------------------------------------------


    -------------------------2--0-0-0---------------------------5--7--------7-----
    -------------1--------3-----1-1-1------------------------5--------5-----------
    ----------0--------2--------2-2-2---------------------5--------------5--------
    -------2--------0-----------3-3-3------------------7-----------6--------------
    -2--3-------------------------------------------------------------------------
    ------------------------------------------------------------------------------


    -8--------8--2--------2--0-----------0----------------------------5--7--------
    ----5-----------3-----------1-----1-----1----------------------5--------5-----
    -------5-----------2-----------2-----------2--0--2-2--------5--------------5--
    -5-----------4-----------3-------------------------------7-----------6--------
    ----------------------------------------------2--0-0--------------------------
    ------------------------------------------------------------------------------


    --7--8--------8--2--------2--0-----------0------------------------------------
    --------5-----------3-----------1-----1-----1------------------------------1--
    -----------5-----------2-----------2-----------2--0--2-2----------------0-----
    -----5-----------4-----------3---------------------------------------2--------
    --------------------------------------------------2--0-0----0--2--3-----------
    ------------------------------------------------------------------------------


    --2--------2--0-----------------------------0-----3--------3--3p2-2-2---------
    -----3-----------1-----1--0-----------1--------1-----0--------3---3-3---------
    --------2-----------2--------2-----------0--------------0-----2---2-2---------
    --0-----------3-----------------------------------------------0---0-0---------
    --------------------------0-----0--2--3---------------------------------0--2--
    --------------------------------------------------3---------------------------


    -----------0--2--------2--0-----------------------------------2--------2--0---
    -----------------3-----------1-----1--0-----------1--------1-----3--------1---
    --------0-----------2-----------2--------2-----------0--------------2-----0---
    -----2--------0-----------3-----------------------------2-----0-----------3---
    --3-----------------------------------0-----0--2--3---------------------------
    ------------------------------------------------------------------------------


    --0-0-------------------5--7--------7--8--------8--2--------2--0-----------0--
    --1-1----------------5--------5-----------5-----------3-----------1-----1-----
    --2-2-------------5---------------5----------5-----------2-----------2--------
    --3-3----------7-----------6-----------5-----------4-----------3--------------
    ------------------------------------------------------------------------------
    ------------------------------------------------------------------------------


    -------------------------------5-7-------7-------------8-------------2--------
    --1--------------------------------5---5---5---------5---5---------3---3------
    -----2--0--2-2---------------5-------5-------5-----5-------5-----2-------2----
    ---------------------------7-----6-------6-----6-5-----------5-4-----------4--
    --------2--0-0---0/8--7--0----------------------------------------------------
    ------------------------------------------------------------------------------


    -------0-----------0---------------------3--3-3-3--3-----0-----3-----2-----2--
    -----1---1-------1---1---------------3---1--1-1-1--1-----1-----3-----3-----3--
    ---2-------2---2-------2----0--2-2---0---2--2-2-2--2-----0-----2-----2-----2--
    -3-----------3-----------3-----------0---2--2-2-2--2-----2-----0--0-----0--0--
    ----------------------------2--0-0---2---0--0-0-0--0--0-----0-----------------
    ------------------------------------------------------------------------------


    --2-2-2--0--0---3--3-3-3--3----0---7------5----3----5--------3--3-3-3--3------
    --3-3-3--1--1---1--1-1-1--1----1---8------7----5----7--------1--1-1-1--1------
    --2-2-2--0--0---2--2-2-2--2----0---9------7----5----7--------2--2-2-2--2------
    --0-0-0--2--2---2--2-2-2--2----2-------0----0----0-----0-----2--2-2-2--2------
    ---------0--0---0--0-0-0--0--0---0------------------------0--0--0-0-0--0--0---
    ------------------------------------------------------------------------------


    -0-----3-----2------2--2-2-2-0-0--3--3-3-3--3-----0-----7------5----3----5----
    -1-----3-----3------3--3-3-3-1-1--1--1-1-1--1-----1-----8------7----5----7----
    -0-----2-----2------2--2-2-2-0-0--2--2-2-2--2-----0-----9------7----5----7----
    -2-----0--0------0--0--0-0-0-2-2--2--2-2-2--2-----2---------0----0----0-------
    ----0------------------------0-0--0--0-0-0--0--0-----0------------------------
    ------------------------------------------------------------------------------


    ------------------------------------------------------------------------------
    ----------------1-----------3--0--------------1-----------------1--3----------
    -------------0-----------0--------2--------2-----------------0-----------0----
    -0--------2-----------0-----------------2-----------------2-----------0-------
    ----0--3-----------2-----------0-----0-----------0--2--3-----------2----------
    ------------------------------------------------------------------------------


    ------------------------------------------------------------------------------
    -1---1-------------------1-----------3--0--------------1-----------------1----
    -2---2----------------0-----------0--------2--------2-----------------0-------
    -2---2-------------2-----------0-----------------2-----------------2----------
    -----0----0--2--3-----------2-----------0-----0-----------0--2--3-------------
    -1----------------------------------------------------------------------------


    -------------------------------------------------3--3-3-3--3-----0-----3------
    -3--------1---1----------------------------------1--1-1-1--1-----1-----3------
    -------0--2---2----------------0-----------0-----2--2-2-2--2-----0-----2------
    ----0-----2---2-------------2-----------0--------2--2-2-2--2-----2-----0--0---
    -2------------0----0--2--3--------3--2--------2--0--0-0-0--0--0-----0---------
    ----------1-------------------------------------------------------------------


    -2------2--2-2-2--0--0---3--3-3-3--3-----0----7---5---3---5-----3--3-3-3--3---
    -3------3--3-3-3--1--1---1--1-1-1--1-----1----8---7---5---7-----1--1-1-1--1---
    -2------2--2-2-2--0--0---2--2-2-2--2-----0----9---7---5---7-----2--2-2-2--2---
    -----0--0--0-0-0--2--2---2--2-2-2--2-----2------0---0---0---0---2--2-2-2--2---
    ------------------0--0---0--0-0-0--0--0-----0-----------------0-0--0-0-0--0-0-
    ------------------------------------------------------------------------------


    -0---3---2----2-2-2-2-0-0--3--3-3-3--3---0---7---5---3---5--------------------
    -1---3---3----3-3-3-3-1-1--1--1-1-1--1---1---8---7---5---7-----------1--------
    -0---2---2----2-2-2-2-0-0--2--2-2-2--2---0---9---7---5---7---------0-------0--
    -2-----0----0-0-0-0-0-2-2--2--2-2-2--2---2-----0---0---0---0-----2-------0----
    ---0------------------0-0--0--0-0-0--0-0---0-----------------0-3-------2------
    ------------------------------------------------------------------------------
     
  2. drsherry

    drsherry Guitarist [SEER]

    cont

    ---------0--------------------------------------------------------------------
    -3-0----------1-----------1-3-----1--1-----------------1------------3--0------
    -----2------2-----------0-------0-2--2-------------0-------------0--------2---
    -------2--------------2-------0---2--2----------2-------------0---------------
    ---0---0--------0-2-2-------2--------0-0--2--3------------2------------0------
    ----------------------------------1-------------------------------------------


    ------------------------------------------------------------3--3-3-3--3-------
    -------1-----------1-3-----1-1------------------------------1--1-1-1--1-------
    -----2-----------0-------0-2-2------------0-----------0-----2--2-2-2--2-------
    ---2-----------2-------0---2-2---------2-----------0--------2--2-2-2--2-------
    -0-------0-2-3-------2-------0--0--2-3-------3--2--------2--0--0-0-0--0--0----
    ---------------------------1--------------------------------------------------


    -0-----3-----2------2--2-2-2--0-0---3--3--3-3--3-----0-----7-----5-----3------
    -1-----3-----3------3--3-3-3--1-1---1--1--1-1--1-----1-----8-----7-----5------
    -0-----2-----2------2--2-2-2--0-0---2--2--2-2--2-----0-----9-----7-----5------
    -2-----0--0------0--0--0-0-0--2-2---2--2--2-2--2-----2--------0-----0-----0---
    ----0-------------------------0-0---0--0--0-0--0--0-----0---------------------
    ------------------------------------------------------------------------------


    -5----------------------------------------------------------------------------
    -7----------------1-----------3--0-------------1------------------1--3--------
    -7-------------0-----------0--------2-------2------------------0-----------0--
    ---0--------2-----------0----------------2------------------2-----------0-----
    ------0--3-----------2-----------0----0------------0--2--3-----------2--------
    ------------------------------------------------------------------------------


    -----------------------------------------3--3-3-3--3-----0-----3-----2-----2--
    --1---1----------------------------------1--1-1-1--1-----1-----3-----3-----3--
    --2---2----------------0-----------0-----2--2-2-2--2-----0-----2-----2-----2--
    --2---2-------------2-----------0--------2--2-2-2--2-----2-----0--0-----0--0--
    ------0----0--2--3--------3--2--------2--0--0-0-0--0--0-----0-----------------
    --1---------------------------------------------------------------------------


    --2--2--2--0--0--3--3-3-3--3-----0-----7-----5----3----5--------3--3-3-3--3---
    --3--3--3--1--1--1--1-1-1--1-----1-----8-----7----5----7--------1--1-1-1--1---
    --2--2--2--0--0--2--2-2-2--2-----0-----9-----7----5----7--------2--2-2-2--2---
    --0--0--0--2--2--2--2-2-2--2-----2--------0----0----0-----0-----2--2-2-2--2---
    -----------0--0--0--0-0-0--0--0-----0------------------------0--0--0-0-0--0---
    ------------------------------------------------------------------------------


    -----0-----3-----2-----2--2-2-2--0-0---3--3-3-3--3-----0-----7-------5-----3--
    -----1-----3-----3-----3--3-3-3--1-1---1--1-1-1--1-----1-----8-------7-----5--
    -----0-----2-----2-----2--2-2-2--0-0---2--2-2-2--2-----0-----9-------7-----5--
    -----2-----0--0-----0--0--0-0-0--2-2---2--2-2-2--2-----2---------0------0-----
    --0-----0------------------------0-0---0--0-0-0--0--0-----0-------------------
    ------------------------------------------------------------------------------


    -----5------------------------------------------------------------------------
    -----7-----------------1-----------3--0---------------1------------------1----
    -----7--------------0-----------0--------2---------2------------------0-------
    --0-----0--------2-----------0-----------------2-------------------2----------
    -----------0--3-----------2-----------0-----0-------------0--2--3-------------
    ------------------------------------------------------------------------------


    ------------------------------------------------------------------------------
    -3--------1--1-----------------1-----------3--0--------------1----------------
    -------0--2--2--------------0-----------0--------2--------2-------------------
    ----0-----2--2-----------2-----------0-----------------2-----------------2----
    -------------0--0--2--3-----------2-----------0-----0-----------0--2--3-------
    -2--------1-------------------------------------------------------------------
     
  3. drsherry

    drsherry Guitarist [SEER]

    cont

    ------------------------------------------------------2-----------------------
    ----1--3--------1--1----------------------------------3-----------------------
    -0-----------0--2--2----------------0-----------0-----2-----------------------
    ----------0-----2--2-------------2-----------0--------0-----------------------
    -------2-----------0----0--2--3--------3--2--------2--------------------------
    ------------------------------------------------------------------------------


    SOLO:
    --2--0---------------2----------|----------------5--------------------------
    --------3-----3----3---3--------|-------------------8p5---------------------
    -----------0--4--4-------4p2----|---7^^~~~~~~~----------7p5----7p5---------
    ------------------------------5-|----------------------------7-------7p5----
    --------------------------------|----------------------------------------8~~
    --------------------------------|-------------------------------------------


    --------------8--8--8^^---8--5-----------|-8--10p8--------------------------
    --------8^^----------------------5---/10-|----------10p8------8h10~~~~~~~---
    -----------------------------------------|----------------10----------------
    -----------------------------------------|----------------------------------
    ~~~~~~~----------------------------------|----------------------------------
    -----------------------------------------|----------------------------------


    ----------5------------------------------------------|-5--------------------
    -------------8p5-------------------------------------|----8p5---------------
    ---7^^------------7-5-----7p5-------------5---5-5--0-|----------7p5----5h7p5
    -----------------------7-------7p5----5-7---7--------|---------------7------
    ------------------------------------7----------------|----------------------
    -----------------------------------------------------|----------------------


    -----------------------------------|----------------------------------------
    ------------------------6----------|--------------------13--15^^--15-13-15--
    ----------------------5---7p5----5-|------12----12--14----------------------
    --7p5--7p5-------5/7-----------7---|--/14----14-----------------------------
    ------------8----------------------|----------------------------------------
    -----------------------------------|----------------------------------------


    ----------15^^---15-13----------------|--------------------------------------
    --13--13----------------15^^--15-13---|-13-15^^(15)p13------13-15^^(15)p13---
    -----------------------------------14-|----------------14------------------14
    --------------------------------------|--------------------------------------
    --------------------------------------|--------------------------------------
    --------------------------------------|--------------------------------------


    ----------------------------------------|------------------------------------
    --13-15^^(15)p13------13-15^^(15)p13----|--13-15^^(15)p13-----13-15^^(15)p13-
    -----------------14------------------14-|-----------------14-----------------
    ----------------------------------------|------------------------------------
    ----------------------------------------|------------------------------------
    ----------------------------------------|------------------------------------


    ----------------------------------------------|-------------------------------
    -------13-15^^(15)p13-------13-15^^(15)p13----|--13-15^^(15)p13-----13-15^^(15)
    --14------------------14-------------------14-|-----------------14------------
    ----------------------------------------------|-------------------------------
    ----------------------------------------------|-------------------------------
    ----------------------------------------------|-------------------------------


    --------------15^^---12-15-12------|----------------------------15-------------
    (15)p13----13-----------------15-13|----13-15-13----13--15^^(hb)---(15)^p13----
    --------14-------------------------|-14----------14----------------------------
    -----------------------------------|-------------------------------------------
    -----------------------------------|-------------------------------------------
    -----------------------------------|-------------------------------------------


    ------------------------17--------------------------------|--------------------
    ---------------------20----20-----------------------------|--------------------
    --14~~~~~~~-----19^^-----------19^^(19)p17----19-17----17-|--19^^~~~~~~~~------
    -------------------------------------------19-------19----|--------------------
    ----------------------------------------------------------|--------------------
    ----------------------------------------------------------|--------------------

    Grad.
    ------------------------------------------|------------------------------------
    ------------------------------------------|---------------------------5--------
    --14^^^--14^^^----14-12-14---12/14~~~~~~~~|--10^^^^---10-9-7-5-7-5--7---7-5----
    ------------------------------------------|---------------------------------7~-
    ------------------------------------------|------------------------------------
    ------------------------------------------|------------------------------------


    ----20p17----20p17----20p17----20p17----20p17----20^^--|
    -17-------17-------17-------17-------17-------17-------|
    -------------------------------------------------------|
    -------------------------------------------------------|
    -------------------------------------------------------|
    -------------------------------------------------------|



    --------------------5-5-----------3-3-----------1-1--1-1--1---3-3-------------
    --------------------5-5-----------3-3-----------1-1--1-1--1---3-3-------------
    --------------------5-5-----------4-4-----------2-2--2-2--2---4-4-------------
    --------------------7-7-----------5-5-----------3-3--3-3--3---5-5-------------
    --------------------7-7-----------5-5-----------3-3--3-3--3---5-5-------------
    --------------------5-5-----------3-3-----------1-1--1-1--1---3-3-------------


    ---------------------------------------------------------------5-5------------
    ---------------------------------------------------------------5-5------------
    ---------------------------------------------------------------5-5------------
    ---------------------------------------------------------------7-7------------
    ---------------------------------------------------------------7-7------------
    ---------------------------------------------------------------5-5------------


    -3-3-------0--0-0--0-0-0-0-0-0-0-----5-5--------3-3-------1-1-1-1-1-1-1-1-1---
    -3-3-------1--1-1--1-1-1-1-1-1-1-----5-5--------3-3-------2-2-2-2-2-2-2-2-2---
    -4-4-------2--2-2--2-2-2-2-2-2-2-----5-5--------4-4-------2-2-2-2-2-2-2-2-2---
    -5-5-------2--2-2--2-2-2-2-2-2-2-----7-7--------5-5-------2-2-2-2-2-2-2-2-2---
    -5-5-------x--x-x--x-x-x-x-x-x-x-----7-7--------5-5-------x-x-x-x-x-x-x-x-x---
    -3-3-------1--1-1--1-1-1-1-1-1-1-----5-5--------3-3-------1-1-1-1-1-1-1-1-1---

    -1------------------------------------------------------------------5-5--5----
    -2------------------------------------------------------------------5-5--5----
    -2------------------------------------------------------------------5-5--5----
    -2------------------------------------------------------------------7-7--7----
    -x------------------------------------------------------------------7-7--7----
    -1------------------------------------------------------------------5-5--5----


    ---3-3--3----1-1-1-1-1-1-1-1---3------------------------------5-5-5---3-3-3---
    ---3-3--3----1-1-1-1-1-1-1-1---3------------------------------5-5-5---3-3-3---
    ---4-4--4----2-2-2-2-2-2-2-2---4------------------------------5-5-5---3-3-3---
    ---5-5--5----3-3-3-3-3-3-3-3---5------------------------------7-7-7---5-5-5---
    ---5-5--5----3-3-3-3-3-3-3-3---5------------------------------7-7-7---5-5-5---
    ---3-3--3----1-1-1-1-1-1-1-1---3------------------------------5-5-5---3-3-3---


    ----------0-------------------------------------------------------------------
    ----------1-------------------------------------------------------------------
    ----------2-------------------------------------------------------------------
    ----------3-------------------------------------------------------------------
    ------------------------------------------------------------------------------
    ------------------------------------------------------------------------------
     
  4. prash303

    prash303 New Member

    fake...

    u jus copied it off from som website...i
     
  5. .:SpY_GaMe:.

    .:SpY_GaMe:. New Member

    ultimate-guitar^^^
     
  6. abhimanjrekar

    abhimanjrekar ----> Zhol-Man<----

    all his posts have one thing in common COPIED FROM A SITE..
     
  7. .:SpY_GaMe:.

    .:SpY_GaMe:. New Member

    lol his title says it all!
     
  8. abhimanjrekar

    abhimanjrekar ----> Zhol-Man<----

    haha..his id reminds me of sidhu the great !!!!!!!!!
     
  9. drsherry

    drsherry Guitarist [SEER]

    someone asked me to post them there boys!
    and i dont hav time to change every bit of it and post
    and i know that it was copied and pasted...so does that make any difference! is that a lot pain in the *** nopes..thats not a big deal...specially when someone asks u do give them the tabs

    sad to hear
     
  10. d_ist_urb_ed

    d_ist_urb_ed Genuflect b*tches!

    Instead of whining like a wuss, think clearly the next time and include the website from which you got the tabs off of. We dont have a problem with you cutting and pasting, we have a problem with you not giving due credit where it belongs.
     
  11. nazr

    nazr angel is my genital..

    Ek to {literally} chori upar se seena zoori.
     
  12. JPageZeppelin

    JPageZeppelin New Member




    right on man
     

Share This Page