Sub: Taare Zameen Par - Maa (Song Notes)

Discussion in 'Hindi Guitar Tabs - Submit or Request' started by mmsshh777, Apr 11, 2008.

  1. mmsshh777

    mmsshh777 New Member


    Music
    e|----------------------------------------------------------|
    B|-1s3~--1~---3s5~--3~--1s3~--1~-----1--3-3s4--1-3--3s5~----|
    G|-------------------------------1-1------------------------|
    D|----------------------------------------------------------|
    A|----------------------------------------------------------|
    E|----------------------------------------------------------|


    VERSE
    ...Main Kabhi Batlaaata Nahin
    e|----------------------------------|
    B|----------------------------------|
    G|------5-5-----5-5H7~-----5-5~-----|
    D|--7--------8---------8------------|
    A|----------------------------------|
    E|----------------------------------|

    ...Par Andhere Se Dartaa Hoon Main Maa
    e|----------------------------------|
    B|----------------------------------|
    G|--9-9-9-9-10--7-7----5-5~---------|
    D|------------------8---------------|
    A|----------------------------------|
    E|----------------------------------|

    ...Yoon To Main Dikhlaaata Nahin
    e|----------------------------------|
    B|----------------------------------|
    G|------5-5-----5-5H7~-----5-5~-----|
    D|--7--------8---------8------------|
    A|----------------------------------|
    E|----------------------------------|

    ...Teri Parwaah Kartaa Hoon Main Maa
    e|----------------------------------|
    B|----------------------------------|
    G|--9-9-9-9-10--7-7----5-5~---------|
    D|------------------8---------------|
    A|----------------------------------|
    E|----------------------------------|

    ...Tujhe Sab Hai Pataa Hai Naa Maa
    e|----------------------------------|
    B|----------------------------------|
    G|--5-5-5H7--10--10-10H12--9-10-10~-|
    D|----------------------------------|
    A|----------------------------------|
    E|----------------------------------|

    ...Tujhe Sab Hai Pataa......... Meri Maa.....(Music)
    e|------------------------------------------10p8-10p8----8--|
    B|-----------6--6-6H8--(pause)--5--6-6~---------------10----|
    G|--5-5-5H7-------------------------------------------------|
    D|----------------------------------------------------------|
    A|----------------------------------------------------------|
    E|----------------------------------------------------------|

    Repeat VERSE for "Bheed Mein Yoon Na Chhodo Mujhe...."

    SOLO (has already been tabbed by BANDBAAJA)


    ...Jab Bhi Kabhi Papa Mujhe Zor Zor Se Jhula Jhulate Hain Maa
    e|-------------------------------------------------------------|
    B|-------------------------------------------------------------|
    G|--7-7-5-5---7s9-9-7-7--5H7-7-5-5~------5--7-7S8--5--7--7S9~--|
    D|----------------------------------6--6-----------------------|
    A|-------------------------------------------------------------|
    E|-------------------------------------------------------------|


    ...Meri Nazar Dhunde Tujhe Sochun Yahiii Tu Aake Thamegi Maa
    e|-------------------------------------------------------------|
    B|-------------------------------------------------------------|
    G|--7-7-5-5---7s9-9-7-7--5H7-7-5-5~------5--7-7S8--5--7--7S9~--|
    D|----------------------------------6--6-----------------------|
    A|-------------------------------------------------------------|
    E|-------------------------------------------------------------|

    Repeat VERSE for "Unse Main Yeh Keheta Nahin..."

    slight change for the "Dil Hi Dil Main Ghabraataa Hoon Maa"

    ...Dil Hi Dil Main Ghabraataa Hoon Maa
    e|----------------------------------|
    B|----------------------------------|
    G|--9-9-9-10H12-10--7-7----5-5~-----|
    D|-----------------------8----------|
    A|----------------------------------|
    E|----------------------------------|

    and same for the "Teri Parwaah Kartaa Hoon Main Maa" part

     
  2. tito419sep

    tito419sep New Member

    beatuiful song yaar
     
  3. ernav

    ernav New Member

    thanks a ton for this song........
     
  4. ernav

    ernav New Member

    @ mmsshh777

    i tabbed ur notes....its really to good...please can u also tabbe....another songs from this movie n from jaane tu ya jaane na...thanks in advance...
     
  5. aravindreghu

    aravindreghu New Member

    iam beginner plz tell me how u 'll read that?
     
  6. ksthehunk

    ksthehunk New Member

    thanks..............................
     
  7. g_kepnrock

    g_kepnrock New Member

    Thanks buddy
     
  8. Raisah99

    Raisah99 New Member

    thnk you soo much it is excelent i looovve the intro
     
  9. Raisah99

    Raisah99 New Member

    you roooccckkk illi/
     

Share This Page