Sub or Req::LAYNE by staind: req by Musit

Discussion in 'English Guitar Tabs - Submit or Request' started by drsherry, Jan 21, 2007.

  1. drsherry

    drsherry Guitarist [SEER]

    Tuning: Bb Gb Db Ab Db Ab

    Intro:
    Bb|------------------------------------------|-------------------------------------|
    Gb|------------------------------------------|-------------------------------------|
    Db|---14\13-13-13-13/14-14-14-11-11-11-11-11-|-14\13-13-13-13/14-14-14-9-9-9-9-9---|
    Ab|---0-----0--0--0-----0--0--0--0--0--0--0--|-------------------------0-0-0-0-0---| x2
    Db|------------------------------------------|-------------------------------------|
    Ab|------------------------------------------|-------------------------------------|

    Verse:
    Bb|------------------------------------------|-------------------------------------|
    Gb|------------------------------------------|-------------------------------------|
    Db|---14\13-13-13-13/14-14-14-11-11-11-11-11-|-14\13-13-13-13/14-14-14-9-9-9-9-9---|
    Ab|---0-----0--0--0-----0--0--0--0--0--0--0--|-------------------------0-0-0-0-0---| x4
    Db|------------------------------------------|-------------------------------------|
    Ab|------------------------------------------|-------------------------------------|

    Prechorus:
    Bb|--------------------------------------------------------------------------------|
    Gb|--------------------------------------------------------------------------------|
    Db|-------7-----7---------5-------5------7-----7---------5--------7----------------|
    Ab|-----7---7-----7-----5---5---5------7---7-----7-----5---5---5/-7----------------|
    Db|---7-------7-----7-5-------5------7-------7-----7-5-------5----7----------------|
    Ab|--------------------------------------------------------------------------------|

    Chorus: (x4) (Guitar 2)
    Bb|---14-14\----10-10----------------17-17-----------------------------------------|
    Gb|--------------------------------------------------------------------------------|
    Db|---11-11\----7--7-----------------14-14-----------------------------------------|
    Ab|--------------------------------------------------------------------------------|
    Db|--------------------------------------------------------------------------------|
    Ab|--------------------------------------------------------------------------------|
    | |
    | (Guitar 1) |
    Bb|--------------------------------------------------------------------------------|
    Gb|--------------------------------------------------------------------------------|
    Db|----------------------5-5-5-x---------------------------------------------------|
    Ab|---12-12-12-----------5-5-5-x---------------------------------------------------|
    Db|---14-14-14--14-14\---5-5-5-x-7-----7-------------------------------------------|
    Ab|---12-12-12--12-12\-----------5-----5-------------------------------------------|

    Verse:
    Bb|------------------------------------------|-------------------------------------|
    Gb|------------------------------------------|-------------------------------------|
    Db|---14\13-13-13-13/14-14-14-11-11-11-11-11-|-14\13-13-13-13/14-14-14-9-9-9-9-9---|
    Ab|---0-----0--0--0-----0--0--0--0--0--0--0--|-------------------------0-0-0-0-0---| x4
    Db|------------------------------------------|-------------------------------------|
    Ab|------------------------------------------|-------------------------------------|

    Prechorus:
    Bb|--------------------------------------------------------------------------------|
    Gb|--------------------------------------------------------------------------------|
    Db|-------7-----7---------5-------5------7-----7---------5--------7----------------|
    Ab|-----7---7-----7-----5---5---5------7---7-----7-----5---5---5/-7----------------|
    Db|---7-------7-----7-5-------5------7-------7-----7-5-------5----7----------------|
    Ab|--------------------------------------------------------------------------------|

    Chorus: (x4) (Guitar 2)
    Bb|---14-14\----10-10----------------17-17-----------------------------------------|
    Gb|--------------------------------------------------------------------------------|
    Db|---11-11\----7--7-----------------14-14-----------------------------------------|
    Ab|--------------------------------------------------------------------------------|
    Db|--------------------------------------------------------------------------------|
    Ab|--------------------------------------------------------------------------------|
    | |
    | (Guitar 1) |
    Bb|--------------------------------------------------------------------------------|
    Gb|--------------------------------------------------------------------------------|
    Db|----------------------5-5-5-x---------------------------------------------------|
    Ab|---12-12-12-----------5-5-5-x---------------------------------------------------|
    Db|---14-14-14--14-14\---5-5-5-x-7-----7-------------------------------------------|
    Ab|---12-12-12--12-12\-----------5-----5-------------------------------------------|

    Bridge: (x4) (Guitar 2)
    Bb|--------------------------------------------------------------------------------|
    Gb|---5-5-5-5-----12\7-7-7-7-7------9--7--5--7---9----7--5--7----------------------|
    Db|--------------------------------------------------------------------------------|
    Ab|---3-3-3-3-----10\5-5-5-5-5------7--5--3--5---7----5--3--5----------------------|
    Db|--------------------------------------------------------------------------------|
    Ab|--------------------------------------------------------------------------------|

    (Guitar 1)
    Bb|--------------------------------------------------------------------------------|
    Gb|--------------------------------------------------------------------------------|
    Db|-------------------------12-12-12-12--14-14-14----------------------------------|
    Ab|-------------------------10-10-10-10--12-12-12----------------------------------|
    Db|---10---10-10--12--12-12-10-10-10-10--12-12-12--12--12-12--12-------------------|
    Ab|---8----8--8---10--10-10-10-10-10-10--12-12-12--10--10-10--10-------------------|

    Interlude:
    Bb|--------------------------------------------------------------------------------|
    Gb|--------------------------------------------7-----------------------------------|
    Db|-----7-----7-----9--7------10-10-9------5-5-5-----------------------------------|
    Ab|-------7-----7--------7----7--7--7------5-5-------------------------------------|
    Db|---7-----7-----7--------7-------------5--------0--------------------------------|
    Ab|--------------------------------------------------------------------------------|

    Chorus: (x4) (Guitar 2)
    Bb|---14-14\----10-10----------------17-17-----------------------------------------|
    Gb|--------------------------------------------------------------------------------|
    Db|---11-11\----7--7-----------------14-14-----------------------------------------|
    Ab|--------------------------------------------------------------------------------|
    Db|--------------------------------------------------------------------------------|
    Ab|--------------------------------------------------------------------------------|
    | |
    | (Guitar 1) |
    Bb|--------------------------------------------------------------------------------|
    Gb|--------------------------------------------------------------------------------|
    Db|----------------------5-5-5-x---------------------------------------------------|
    Ab|---12-12-12-----------5-5-5-x---------------------------------------------------|
    Db|---14-14-14--14-14\---5-5-5-x-7-----7-------------------------------------------|
    Ab|---12-12-12--12-12\-----------5-----5-------------------------------------------|

    Outro:
    Bb|--------------------------------------------------------------------------------|
    Gb|--------------------------------------------7-----------------------------------|
    Db|-----7-----7-----9--7------10-10-9------5-5-5-----------------------------------|
    Ab|-------7-----7--------7----7--7--7------5-5-------------------------------------|
    Db|---7-----7-----7--------7-------------5--------0--------------------------------|
    Ab|--------------------------------------------------------------------------------|
     

Share This Page