[Sub] Mausam and Escape - Slumdog Millionaire

Discussion in 'Hindi Guitar Tabs - Submit or Request' started by srideep, Jan 11, 2009.

  1. srideep

    srideep ...FKD...

    Hi,

    Has anybody tried to play the Mausam and Escape track form the movie Slumdog Millionaire.

    This is what i think is played. I realize the middle part is messed up so can anybody correct these tabs.

    Ive uploaded a recording of what i played here :- http://soundclick.com/share?songid=7227753

    Please comment on the recoding and the tabs

    The main part

    E|-----------------------------5-6-5h6p5---5-----------
    B|---------6-6-6-6-6-8-5-5-5-5-----------8---8-6-6-5---
    G|-7-7-7-7-------------------------------------------7-
    D|-----------------------------------------------------
    A|-----------------------------------------------------
    E|-----------------------------------------------------

    This comes in the middle thrice

    E|-------------------------------------------------
    B|-6-5-----5-6-8-6-5---5-6-6-5-----5-6-8-6-5---5-6-
    G|-----7-7-----------7---------7-7-----------7-----
    D|-------------------------------------------------
    A|-------------------------------------------------
    E|-------------------------------------------------

    E|-------------------------------------------------
    B|-8-6-5---5-6-8-6-5---5-6-8-6-5---5-6-8-6-5---5-6-
    G|-------7-----------7-----------7-----------7-----
    D|-------------------------------------------------
    A|-------------------------------------------------
    E|-------------------------------------------------

    E|---------------------------------
    B|-8-6-5---8-6-5---8-6-5---8-6-5---
    G|-------7-------7-------7-------7-
    D|---------------------------------
    A|---------------------------------
    E|---------------------------------

    enjoy
     

    Attached Files:

  2. imconfused

    imconfused New Member

    very well played...!
     
  3. jackie_jagger

    jackie_jagger New Member

    wow, amazing, I'm a starter at guitar been jus few weeks i am able to play em great ....great tabs...cheers
     
  4. jackie_jagger

    jackie_jagger New Member

    Dude, amazingly played, Amazing Tabs...i just started learning guitar sum dayz bak...and i play this so gr8..only the hammer on nd pull offz r a bit tuff :( ...practicing tho :p...
    cheers!!
    Jack
     
  5. tez

    tez New Member

    awesome srideep ....

    tabs are great ...

    and yes yo do play really good :)


    thanks
     
  6. sandeepuae

    sandeepuae New Member

    nice tabs dude... but how do you play the final part really fast???
     
  7. sam#3

    sam#3 The Lucifer

    Gud job dude...
     
  8. divikarora

    divikarora New Member

    track

    how did u get the backing track??
     
  9. sukrut

    sukrut God Guitarist

    Code:
    E:-5-5-5-5--5-5-5-5--5-5-5-5--5-5----------
    A:-7-7-7-7--8-8-8-8--7-7-7-7--5-7----------
    
    here's jai ho if anyone's interested!!
    cheers!
    :beer:
     
  10. srideep

    srideep ...FKD...

    I made the backing track using Guitar Pro 5
    I have attached it in the zip file

    About playing the last part, if you keep playing it long enough you get the hang of it.

    All the best
     

    Attached Files:

  11. himgattu

    himgattu New Member

    srideep could you give me the song with the backgroung on guitar pro five.
    it would be really nice of you.

    thxxx
     
  12. freelancer

    freelancer New Member

    great work
    i love this song :D
    thanks a lot for the tab :)
    Mr.srideep can you please post a guitar pro with all the song even the guitar part ;)
    thanks
     
  13. Jonny Joker

    Jonny Joker New Member

    Awesom tabs.
     
  14. moonrider619

    moonrider619 New Member

    hey can u plz post d tabs of jai ho?plzzzzzzzzzzzzzzz
     

Share This Page