sub: "HEERIYE" - shael tabs

Discussion in 'Hindi Guitar Tabs - Submit or Request' started by paranoid13rohan, Jun 20, 2007.

  1. paranoid13rohan

    paranoid13rohan .: iNDiaN iDioT 3.0 :.

    song: heeriye
    singer: shael


    Verse 1:

    soniye heeriye teri yaad aand diye
    -----------------------------------1----|e
    -4-3-1---4-3-1---31------1-3-1-3----31--|b
    -------------------3---3--------------3-|g
    ----------------------------------------|d
    ----------------------------------------|a
    ----------------------------------------|E

    seene wich tadapda hai dil jaan jaand diye
    ----------------------------------------|e
    ----------------------------------------|b
    -3-33-33-1-131------1-3-11--------------|g
    --------------3---3---------------------|d
    ----------------------------------------|a
    ----------------------------------------|E


    Repeat Verse 1


    Verse 2:

    tu hee jind meriye dil da karaar nee
    ----------------------------------------|e
    -1-3-4-3-43-43-----1-3-1-3-1-3----------|b
    -----------------3----------------------|g
    ----------------------------------------|d
    ----------------------------------------|a
    ----------------------------------------|E

    tu hee jind meriye dil da karaar
    ----------------------------------------|e
    -1-3-4-3-43-43-----1-3-1-3--------------|b
    -----------------3----------------------|g
    ----------------------------------------|d
    ----------------------------------------|a
    ----------------------------------------|E

    tu aaja tainu rab da wasta
    ----------------------------------------|e
    -3-131----11-1-1------------------------|b
    ------3-3-------------------------------|g
    ----------------------------------------|d
    ----------------------------------------|a
    ----------------------------------------|E

    tu aaja tainu rab da wasta
    ----------------------------------------|e
    -3-131----11-1-3/6\3--------------------|b
    ------3-3-------------------------------|g
    ----------------------------------------|d
    ----------------------------------------|a
    ----------------------------------------|E

    udhikhda mei tera raasta
    ----------------------------------------|e
    -3-131----11-1-1------------------------|b
    ------3-3-------------------------------|g
    ----------------------------------------|d
    ----------------------------------------|a
    ----------------------------------------|E


    Verse 3:

    kinna tainu chava aye naa samjhi tu
    ----------------------------------------|e
    -1-----1--------------------------------|b
    ---3-0---3-3---0------------------------|g
    -----------------3-1-3/5\3--------------|d
    ----------------------------------------|a
    ----------------------------------------|E

    tere naam keetthi zindegi
    ----------------------------------------|e
    ------1-11------------------------------|b
    -1-11-------1-00------------------------|g
    ----------------------------------------|d
    ----------------------------------------|a
    ----------------------------------------|E

    jadoo tu milegi tainu dassaange
    ----------------------------------------|e
    -1-----1--------------------------------|b
    ---3-0---3-3---0------------------------|g
    -----------------3-1-3/5\3--------------|d
    ----------------------------------------|a
    ----------------------------------------|E

    tere naal meri har khushi
    ----------------------------------------|e
    ------3-33------------------------------|b
    -1-11-------1-00------------------------|g
    ----------------------------------------|d
    ----------------------------------------|a
    ----------------------------------------|E


    almost same tabs for the rest of the song





    comments, corrections and reps invited.
    in case you haven't heard this beautiful song, you can watch the video @ http://www.youtube.com/watch?v=zS1C7tqnIHI.
    enjoy :beer:
     
  2. Vinaycg

    Vinaycg New Member

    all the best

    verry nice work ,all the best

    plz send some latest song tabs.
     
  3. blacklistdshanu

    blacklistdshanu New Member

    thnx..nice job man
     
  4. kapilbhati1639

    kapilbhati1639 New Member

    can u plz gv me the tabs of
    nayak nai khalnayak hun main
    plz...............
     

Share This Page