Sub-don Tabs...............

Discussion in 'Hindi Guitar Tabs - Submit or Request' started by ganeshgautam, Dec 31, 2006.

  1. ganeshgautam

    ganeshgautam New Member

    I M VERY NEW TO THE GUITARING..... PLEASE ADVICE ME AND SUGGEST ME TO IMPROVE MY SKILLS........... HERE IS ONE OF MY WORKS... ANYTHING WRONG,PLEASE LET ME KNOW......


    don music!!!!!!!!!!!!!!!!!!!!!!!!!!!!!!!!!!!!!!!!!! just try this and tell me.....

    intro
    e-0---------------------------------------------------------
    b-----0--1---3----------------------------------------------
    g-----------------2--3----------------------------------------
    d------------------------3--2----------------------------------
    a------------------------------------------------------------
    e------------------------------------------------------------

    e----------------------------------------------------------
    b----------------------------------------------------------
    g----------------------------------------------------------
    d-2-2---223-22-0-[3times after that]--0-------
    a-----------------------------------------------------2---
    e----------------------------------------------------------



    song part
    e-----------------------------------------------------------
    b--0-----0---------------1----0----1----0-------0------
    g------3----2---1---2------------------------3-----------
    d------------------------------------------------------------
    a------------------------------------------------------------
    e------------------------------------------------------------

    e------------------------------------0-----------------------
    b--0----3---1----0---1---0-------------1--0--0--------------------------
    g-----3--------------------------3----------------------------
    d-------------------------------------------------------------
    a------------------------------------------------------------
    e------------------------------------------------------------



    THANK U.. I DONT KNOW THE REST...... I'LL TRY IT...
     

Share This Page