Sub: DIL KARTA HAI NADANIYAAN - Love Story (TV Serial) Title Track Chords

Discussion in 'Hindi Guitar Tabs - Submit or Request' started by paranoid13rohan, May 30, 2007.

  1. paranoid13rohan

    paranoid13rohan .: iNDiaN iDioT 3.0 :.

    Sub: DIL KARTA HAI NADANIYAAN - Love Story (TV Serial) Title Track Chords + Solo Tabs

    song: dil karta hai nadaniyaan
    music: cactus
    vocals: rana mazumdar

    ------------------------------



    intro solo:

    ----------------------------|e
    -12S14-12--------9----------|b
    ------------9-11---11-9-----|g
    ------------------------11s-|d
    ----------------------------|a
    ----------------------------|E

    ----------------------------|e
    ---------9-12S14-12------9b-|b
    ----9-11------------9-11----|g
    -11-------------------------|d
    ----------------------------|a
    ----------------------------|E


    [E------------------B---
    dil karta hai nadaniyaan
    -------------------E--
    sehta hai lakhon sitam] x2


    A------------------------E-------B-
    rahi chalna hai aab tere saang yuhi


    [E---------C#m--B-----A---B--
    tujhe main dhundta phiru
    C#m-----------------E-
    meri har chahat hai tu] x3




    ------------------------------

    in case you havn't heard the song, here goes the link ~ http://www.youtube.com/watch?v=Qtc44Uu8jvo

    comments, corrctions welcome.
    cheers :beer:
     
  2. sayantan_guha

    sayantan_guha New Member

    u posted it in bengali too.....ami sudhu cheyechi tomay.....he he he he

    good work
     
  3. soumyakoley

    soumyakoley I'm on the Road again

    vocals RANA MOJUMDER noy SAYAK ...... sure
     
  4. i love songs

    i love songs New Member

    hi can u tell me how to download a song of the serial love story
     
  5. sarang.4u

    sarang.4u New Member

    DIl karta hai nadaniyaan

    how to download mp3 song or video plz tell me
     
  6. sarang.4u

    sarang.4u New Member

    Dil Karta Hai Nadanniyaan

    Hi Frnds,

    I Want Dil Karta Hai Nadaniyaan Songs From Love Story Sab Tv Serial Plz Send Me Mp3 Song Or Video Songs .....
     
  7. the 131

    the 131 New Member

    helloooooooooooooooooooooooooooooo
     
  8. the 131

    the 131 New Member

    Download

    how to download dil,title track love story.
     
  9. scorpsid

    scorpsid New Member

  10. scorpsid

    scorpsid New Member

Share This Page