SUB: Corduroy - Leeway Solo

Discussion in 'Pakistani Guitar Tabs - Submit or Request' started by limaj_daas, Jul 17, 2007.

  1. limaj_daas

    limaj_daas Guitar Pro Maniac



    DOWNLOAD THE NOTEPAD

    K, this took me about an hour and a half to tab and trust me, it was a BIIIIG pain in several places. I've made a gp, an mid and a pdf. I'm not sure about a lot of the timing and the last 2 bars. The rest should be fine. I'd appreciate any feedback.


    E||--------------------------------------------|
    B||--------------------------------------------|
    G||-----------<>7----7h-14p-9p-7---------------|
    D||--7s--9-----------------------14p-9p-7s-5~--|
    A||--------------------------------------------|
    E||--------------------------------------------|

    --------------------------------------------|
    --------------------------------------------|
    -----------<>9----7h-14p-9p-7---------------|
    --7s--9-----------------------14p-9p-7s-5~--|
    --------------------------------------------|
    --------------------------------------------|

    --------------------------------------------|
    --------------------------------------------|
    -----------<>7----7h-14p-9p-7---------------|
    --7s--9-----------------------14p-9p-7s-5~--|
    --------------------------------------------|
    --------------------------------------------|

    -------------------------------------------|
    -------------------------------------------|
    -----------7s-9---L------------------------|
    --7s--9-------------14p-9p-7-14p-9p-7s-5~--|
    -------------------------------------------|
    -------------------------------------------|

    --------------------------------------------|
    --------------------------------------------|
    -----------<>7----7h-14p-9p-7---------------|
    --7s--9-----------------------14p-9p-7s-5~--|
    --------------------------------------------|
    --------------------------------------------|

    --------------------------------------------|
    --------------------------------------------|
    -----------<>9----7h-14p-9p-7---------------|
    --7s--9-----------------------14p-9p-7s-5~--|
    --------------------------------------------|
    --------------------------------------------|

    --------------------------------------------|
    --------------------------------------------|
    -----------<>7----7h-14p-9p-7---------------|
    --7s--9-----------------------14p-9p-7s-5~--|
    --------------------------------------------|
    --------------------------------------------|

    -------------------------------------|-----------------------------|
    -------------------------------------|------------12br----L-----L--|
    -----------<>9b----L~----7h-14p-9p-7-|------7----------------------|
    --7s--9------------------------------|--7-9----9-------------------|
    -------------------------------------|-----------------------------|
    -------------------------------------|-----------------------------|

    -----------------10---------------|-----------------------------|
    ------------10b------10pbr--8~----|------------12br----L-----L--|
    ------7---------------------------|------7----------------------|
    --7-9----9------------------------|--7-9----9-------------------|
    ----------------------------------|-----------------------------|
    ----------------------------------|-----------------------------|

    -----------------10---------------|
    ------------10b------10pbr--8~----|
    ------7---------------------------|
    --7-9----9------------------------|
    ----------------------------------|
    ----------------------------------|

    -----------------------10-12-15-12-10----------------------------10-12-15-12-10-
    --10-12-15-15-12-10-12----------------15-12-10-12-15-15-12-10-12----------------
    --------------------------------------------------------------------------------
    --------------------------------------------------------------------------------
    --------------------------------------------------------------------------------
    --------------------------------------------------------------------------------


    --------------------10-12-15-12-10----------------------------10-12-15-12-10----
    --12-15-15-12-10-12----------------15-12-10-12-15-15-12-10-12----------------15-
    --------------------------------------------------------------------------------
    --------------------------------------------------------------------------------
    --------------------------------------------------------------------------------
    --------------------------------------------------------------------------------

    -----------------10-12-15-12-10----------------------------10-12-15-12-10-------
    ---L-15-12-10-12----------------15-12-10-12-15-15-12-10-12----------------15-12-
    --------------------------------------------------------------------------------
    --------------------------------------------------------------------------------
    --------------------------------------------------------------------------------
    --------------------------------------------------------------------------------

    -----------10-12-15-12-10----------------------------10-12-15-12-10-------------
    --12-10-12----------------15-12-10-12-15-15-12-10-12----------------15-12-10-12-
    --------------------------------------------------------------------------------
    --------------------------------------------------------------------------------
    --------------------------------------------------------------------------------
    --------------------------------------------------------------------------------


    -----10-12-15-12-10----------------------------10-12-15-12-10-------------------
    --12----------------15-12-10-12-15-15-12-10-12----------------15-12-10-12-15-15-
    --------------------------------------------------------------------------------
    --------------------------------------------------------------------------------
    --------------------------------------------------------------------------------
    --------------------------------------------------------------------------------

    --12-15-12-10----------------------------10-12-15-12-10-------------------------
    --------------15-12-10-12-15-15-12-10-12----------------15-12-15-10-------------
    --------------------------------------------------------------------14p-12-14p-1
    --------------------------------------------------------------------------------
    --------------------------------------------------------------------------------
    --------------------------------------------------------------------------------

    --------------------------------------------------------------------------------
    --------------------------------------------------------------------------------
    --12p-------------------------------------9-15p-12-16p-12-17p-12-18p-12-19p-12-1
    --------------------------------------------------------------------------------
    --------------------------------------------------------------------------------
    --------------------------------------------------------------------------------

    -------------------------------------------------------------------|
    -------------------------------------------------------------------|
    --12--L-L\-------------------------------------9h-11h-12-14br----L-|
    ------------------------------------11h-12h-14---------------------|
    -------------------------10h-12h-14--------------------------------|
    --------------10h-12h-14-------------------------------------------|


    -------------------------------------------------------|
    -------------------------------------------------------|
    ---L-L---11h-12h-14p-12p-11----------------------------|
    ----------------------------14p-12p-11-11----12--14--L-|
    -------------------------------------------------------|
    -------------------------------------------------------|


    Beware: Cleverly played random chromatics lol
    --------------------------------------------------------------------------------
    --------------------------------------------------------------------------------
    ------11h-------------------------------------------12h-14p-12p-11--------------
    ---L---------------------------------------------------------------14p-12p-11h-1
    --------------------------------------------------------------------------------
    --------------------------------------------------------------------------------

    --------------------------------------------------------------------------------
    --------------------------------------------------------------------------------
    -------------12h-13h-15h-17p-15-13p-12----14h-14h-16h-19p-16s-15--------16h-17h-
    --16p-13p-12---------------------------13------------------------17s-14---------
    --------------------------------------------------------------------------------
    --------------------------------------------------------------------------------

     

    Attached Files:

  2. liniroy

    liniroy New Member

    hi how are you
     
  3. javalogix

    javalogix New Member

    Thumbs Up.........Great Tab...!!!!!!
     
  4. framed

    framed New Member

    ***y, man.

    respect.
     
  5. limaj_daas

    limaj_daas Guitar Pro Maniac

    thnx. Btw, howcome u've been on igt since lik 2004 and yet u only have a lik 30 summin posts?
     
  6. framed

    framed New Member

    beeen QUITE the lurker around here =p
     
  7. limaj_daas

    limaj_daas Guitar Pro Maniac

    Aww, now that's no fun! U miss out on all the joy of flamin' and spammmin!!! lol
     
  8. framed

    framed New Member

    actually no offense meant, but most users around here do not know their music and stuff, sad.but, true
     
  9. limaj_daas

    limaj_daas Guitar Pro Maniac

    i'm afraid i'd hav to agree very very closely here
     

Share This Page