Songs from guide

Discussion in 'Hindi Guitar Tabs - Submit or Request' started by sharad_20000, Jan 19, 2004.

  1. sharad_20000

    sharad_20000 New Member

    Song : Kya Se kya Ho Gaya
    Movie: Guide
    Singer Mohd Rafi

    d-------7---9---7----5---4-2
    a--5-7--
    ...Kya se kya ho gaya aaaaa

    b--5-5-9---10-9---5-4---5
    ..Bewafa tere pyaare mai

    d----------7----9------7-5----4-2
    a--5-7-------------------------------
    ...Chaha kya kya mila a aa

    Bewafa tere pyaar mai

    Para
    a--5-9----7-5-5-----4-7----5--4-4----0-2---4----5-2----5---5
    ..Chalo suhana bharam to tuta jaana ke husna kya ha

    a--5---9-7---5-5---4-7---5---4-4---0----2-4----5---2-5---5
    ...Ke pyar jisko kahe yeh duniya kya cheez kya bala haii

    d----------7----9---7-5---2-2--
    a--5--7----------------------------
    ....Dil ne kya na saha aaaa

    Bewafa tere pyaar mai

    Kya se kya ho gaya bewafa tere pyarr mai.
     
  2. slash

    slash New Member

    ahh nice songs m8
     
  3. Taj

    Taj New Member

    ya nice.
    :beer:
     
  4. sharad_20000

    sharad_20000 New Member

    Hi there i m sorry but there is a mistake inone of the line
    bewafa tere pyarr mai is on the 5th not 2nd that is ts on A not B. sorry and thank i just try to do my best.
     
  5. Divyesh A.Patel

    Divyesh A.Patel New Member

    thanks sharad
    i wanna mors tabs for old songs if u know?
     

Share This Page