Some popular guitar leads

Discussion in 'English Guitar Tabs - Submit or Request' started by nazr, Dec 2, 2006.

  1. nazr

    nazr angel is my genital..

    Can somebody please suggest me some popular leads of bands like gnr etc that can be played on an 18 fret acoustic. Not very advanced stuff though
    Thanks
     
  2. nazr

    nazr angel is my genital..

    Some more replies please.lol
     
  3. nazr

    nazr angel is my genital..

    This isnt a terribly active forum. Is it?
     
  4. d_ist_urb_ed

    d_ist_urb_ed Genuflect b*tches!

    ^Not in the tabs sections no. Post a controversial topic in the Chitchat lounge and see your thread's reply rate take off into the stratosphere.
     
  5. nazr

    nazr angel is my genital..

    ^Lol. i will do so and compare.
     
  6. born2tab

    born2tab rhythm guitarist

    Hey GnR seldom played in 18th frets...
    N e ways herez what u desire

    Song: Ain't It Fun
    Band: Guns N' Roses
    Album: The Spaghetti Incident


    This is Slash's intro solo. Tune your guitar down half a step.

    Intro solo
    e-|--------------------------------------------------------5--7p5-7-|
    B-|-------------------------------------------3s5--3--5s7-----------|
    G-|-------------------------2---4~--------4-------------------------|
    D-|-------------------2h4-------------------------------------------|
    A-|------2~--2-4-5--------------------------------------------------|
    E-|-----------------------------------------------------------------|

    |-----10h12b~--r12--10h12--10b~-10b-------------|
    |-12--------------------------------12-10-10b~--|
    |-----------------------------------------------|
    |-----------------------------------------------|
    |-----------------------------------------------|
    |-----------------------------------------------|

    |------------------------------------------------------------------|
    |--10br-7--------------------10-12-10------------------------------|
    |----------9br-7--9-7--9s11-----------9brp7-9-7-9br-7---7-6--------|
    |-----------------------------------------------------9-------7-9~-|
    |------------------------------------------------------------------|
    |------------------------------------------------------------------|

    |--------------------------------------------------|
    |---------------------------------7-7--------------|
    |-----7h9-7-9b~---9br-7h9-7---9-7-----9p7--9-p7----|
    |-7s9-------------------------------------------9~-|
    |--------------------------------------------------|
    |--------------------------------------------------|

    |-------10-------------------------------------------------|
    |----------10-----------------------------10----10h12------|
    |-7h9b---------rb-7h9-7-7---7-9-7-9s11-11----11-------7----|
    |-------------------------------------------------------9~-|
    |----------------------------------------------------------|
    |----------------------------------------------------------|

    |------------------------------------------------------|
    |----------10-10---------------------------------------|
    |-----7h9b-------rbp7-9-9-7---9-7-9brp7-9---7---6------|
    |-7s9-------------------------------------9---9---7-9~-|
    |------------------------------------------------------|
    |------------------------------------------------------|


    :rock:
     
  7. born2tab

    born2tab rhythm guitarist

    here goes another

    WELCOME TO THE JUNGLE
    Guns N'Roses


    /-----call this Riff A------\
    E|-----------------------------|-----------------------------|
    B|-----------------------------|-----------------------------|
    G|---4-------4---------4-4-4---|--4--4-2--2-----------------:|
    D|-----------------------------|------------4--4-2--2--0----:|
    A|-----------------------------|--------------------------2--|
    E|-----------------------------|-----------------------------|
    \--------only once----------/ \----repeat this 2 times----/

    Dont know if they sound accurate...but learnt this from a frend...sounds soothing
     
  8. born2tab

    born2tab rhythm guitarist

    And here goes the most wanted one...by all
    G|-----11-11--12--14--16--14--12-11----|----12r------10--9-----10r--9--

    D|-12-----------------------------12-|-10r------10--------10------10-12-

    E|-------------------------------------|---------------------------------


    G----------------12--11-----|
    D----12--11--12----------12-|
    A-12------------------------|
    E---------------------------|

    thats all i know:think:
     
  9. nazr

    nazr angel is my genital..

    ^The third one is?
    Thanks a lot pal
     
  10. born2tab

    born2tab rhythm guitarist

    OOps...sweet child o mine..
     
  11. nazr

    nazr angel is my genital..

    D C
    e:|--------------15----14-----|--------------15----14-----|
    B:|-----15--------------------|-----15--------------------|
    G:|:-------14-12----14----14-:|:-------14-12----14----14-:|
    D:|--12-----------------------|--14-----------------------|
    A:|---------------------------|---------------------------|
    E:|---------------------------|---------------------------|

    G D
    e:|--------------15----14-----|--------------15----14-----|
    B:|-----15--------------------|-----15--------------------|
    G:|:-12----14-12----14----14-:|:-------14-12----14----14-:|
    D:|---------------------------|--12-----------------------|
    A:|---------------------------|---------------------------|
    E:|---------------------------|---------------------------|

    Isnt this the main part?
     
  12. limaj_daas

    limaj_daas Guitar Pro Maniac

    Metallica - One Intro and Solo + Most riffs...
     
  13. born2tab

    born2tab rhythm guitarist


    u got it right man...I had posted the riff in between....lead is known to all:beer:
     
  14. datta_sneh

    datta_sneh New Member

    whats the diff b/w riff n lead...
     
  15. sam_prat

    sam_prat New Member

    yudi

    hi!!
    all o dem..... here i come.... lets njoy rock nd hav fun..
     

Share This Page