Solo - Kuttey tu they Done :)

Discussion in 'Pakistani Guitar Tabs - Submit or Request' started by ImR@|\|, Apr 13, 2005.

  1. ImR@|\|

    ImR@|\| GuiTar MaNiaC

    Hiya Peepz.. After a long period of continuos stuggle and effort , I have at last succeeded in figuring out the Solo . This has been figured out on a simple hollow acoustic guitar. N sounds perfect both on acoustic and electric.
    Suggestions are always welcomed :)



    |-------------------------------------------|
    |-7-8-7-7-8-7-7-8-----7-10-7-8-7----------|
    |-------------------------------------------|
    |-------------------------------------------|
    |-------------------------------------------|
    |-------------------------------------------|


    |---------------------7--9-9--7-7----------|
    |-5-7-7---7-7---7-8-8---------------8-7---|
    |-------------------------------------------|
    |-------------------------------------------|
    |-------------------------------------------|
    |-------------------------------------------|

    |-----6-7-9-10-12-14-14-12-10-10-9-7-7----7--5-5---5-3-3---2-2-|
    |-7-8--------------------------------------------------------------|
    |------------------------------------------------------------------|
    |------------------------------------------------------------------|
    |------------------------------------------------------------------|
    |------------------------------------------------------------------|

    |-14-14-14-14-14-14-14-14-14-14-14-12-12-10-10--8-8--6-6--4-4--2-2--|
    |------------------------------------------------------------------------|
    |------------------------------------------------------------------------|
    |------------------------------------------------------------------------|
    |------------------------------------------------------------------------|
    |------------------------------------------------------------------------|


    Points will be Appreciated If given .
    All Rights are reserved. Copying of this material or using your name with it will be strictely prohibited and will be forced to take immediate action.Rights reserved by ImR@|\|

    Comments= [SNIP]
     
  2. Orange Guitar

    Orange Guitar IGT's ALLROUNDER

    bohat zabar10...but having lil trouble....can u post a sound fule with it...this will help us a lot :rockon:
     
  3. Orange Guitar

    Orange Guitar IGT's ALLROUNDER

    waisay....in moive of kuttay....the guitarist plays the solo when his fingers is way down the fret board of an electric guitar....tell me whyy?
     
  4. Quadrophenia

    Quadrophenia New Member

    sorry to sound discouraging..ive not tried it.but a first look at it tells me its wrong..because hes playing some kinda scale.what u;'ve posted is on one string only..thats not how hes playing it
    ..
     
  5. BIG_EVIL

    BIG_EVIL Guitaring Machine

    sound GREAT/.....IMRAN..reps coming ur way
     
  6. Orange Guitar

    Orange Guitar IGT's ALLROUNDER

    no man...in vdo he plays the solo on only 1 string...as imran posted but on lower frets!
     
  7. ImR@|\|

    ImR@|\| GuiTar MaNiaC

    Noori plays the Solo on two the last two strings.. there is no scale e.t.c ... juz simple Solo.. n btw orange i dun have a mIc.. i hav but its not workin.. i will buy soon :) den i will record it..
     
  8. Orange Guitar

    Orange Guitar IGT's ALLROUNDER

    thanx....post sound file as soon as possible!
     
  9. Famio

    Famio New Member

    hey gr8 work imran, jus one lil thing, the part where u have given 14-14-14-14-14-. . . i wuz just watching the video in slow motion cuz i got it in my pc n hez playing something like 11-12-11-12-11-12-11-12, im not saying these r the exact frets but i think that hez playing it in this way. but newayz the rest is gr8.
     
  10. qizilbash

    qizilbash New Member

    coool work imran u r the man !!!
     
  11. BIG_EVIL

    BIG_EVIL Guitaring Machine

    oay imran.....once again..gr8 work...sent u some reps
     

Share This Page