Sleep Now In The Fire by Rage Against The Machine(Guitar Tabs Plus Guitar Cover)

Discussion in 'English Guitar Tabs - Submit or Request' started by GuitaristBunny, Apr 2, 2016.

  1. GuitaristBunny

    GuitaristBunny New Member

    I don't usually post tabs so forgive me if it's messy to read. If you have any doubts let me know. It is one of the coolest riffs I've heard. Most of the song is pretty easy to play. Have fun.

    Intro Riff-
    E|--------------------|
    B|--------------------|
    G|----------5---------|
    D|-7-7--5-7---7-------|
    A|--------------------|
    D|--------------------|

    E|--------------------|
    B|--------------------|
    G|----------5---------|
    D|-7-7--5-7---7-------|
    A|--------------------|
    D|--------------------|

    E|--------------------|
    B|--------------------|
    G|----------5---------|
    D|-7-7--5-7---7-------|
    A|--------------------|
    D|--------------------|

    E|----------------------------|
    B|----------------------------|
    G|---7(b)-7---5---------------|
    D|-7--------7---7----7-7------|
    A|----------------------------|
    D|----------------------------|
    (The intro riff repeats several times during the song. Kindly listen to the song(original or cover, it's your choice) to get an idea on how many times you have to play the riff and other parts.)


    Verse:
    E|--------------------|
    B|-10-----------------|
    G|--------------------|
    D|--------------------|
    A|--------------------|
    D|--------------------|
    (Play the above note after short intervals during the verse and pre-chorus.)

    Pre-Chorus:
    E|--------------------|
    B|--------------------|
    G|--------------------|
    D|-7----7-7-----------|
    A|--5-7---------------|
    D|--------------------|
    (Play this bit seven times during the pre-chorus.
    Note: It is not a part of the original song by the band. It is something I play. You can skip this bit if you want.)

    Chorus:
    E|--------------------|
    B|--------------------|
    G|----------5---------|
    D|-7-7--5-7---7-------|
    A|--------------------|
    D|--------------------|

    E|--------------------|
    B|--------------------|
    G|----------5---------|
    D|-7-7--5-7---7-------|
    A|--------------------|
    D|--------------------|

    E|--------------------|
    B|--------------------|
    G|----------5---------|
    D|-7-7--5-7---7-------|
    A|--------------------|
    D|--------------------|

    E|----------------------------|
    B|----------------------------|
    G|---7(b)-7---5---------------|
    D|-7--------7---7----7-7------|
    A|----------------------------|
    D|----------------------------|

    Hope it helped you. Cheers.

    Here is the link to the cover-https://soundcloud.com/master-coriakin/sleep-now-in-the-fire-by-rage-against-the-machine-cover-on-a-acoustic-guitar

    I don't own any rights.
     

Share This Page