Simple Songs for A to E chords...

Discussion in 'Beginner's Q&A Forum' started by zoomingrocket, Jul 29, 2005.

  1. zoomingrocket

    zoomingrocket TeChNiCaL AdMiNiStRaToR

    Hello everyone....

    I have so far learnt A, B, C, D, & E chords...

    Can you pls suggest small and simple English/Hindi Song Chords which i can play...

    Pls suggest...so that i can learn that particular song within 4days times... :)

    Thanks...

    REgards,
    Zooom..!!
     
  2. akkyy21

    akkyy21 #%@!$&

    > Knocking on Heavens door (Avril version) {G,D,C,Am}
    > I'd love you to want me - Lobo {G,Am,C,D)
    > I Aint No Nice Guy - Motorhead {A,E,D,G}
    > Nothing Else Matters {A,B,D,C,G,Em}
    > Don Williams - Lay Down besides me {G,Em,C,D}

    Basically,.... learn G :p:
     
  3. vini

    vini Repeat Offender

    hey..zoom!!! before anything..i wanna congratulate u..that u've come this far :grin: u have been pretty quick..trust me!! now as for ur specific requests..at this point of time i can recall only 1 song thats
    who the **** is alice by Smokie

    ..i think it has A D E chords...m very sorry..cant recall to many songs..i wish u knew G as well..so hey..the next chord u gotta be learning is G for sure..ok?? :) iL keep tellin u more..as soon as i come up wid sumthing..all the best,bro! and iL post in proper progression

    tahda!!
     
  4. DrSaurabh

    DrSaurabh Wh@+s Up D0C

    @akkyy dude, nothing else matters is finger picking....the intro itself becomes killer for a newbie..
    @zoom.....man seriously ur kickin ass......
    A thru E eh,
    ok
    like akkyy says......
    knocking on heavens door...
    Code:
    mama, take my badge away
    G       D            Am
    I cant use it anymore
    G       D            C
    its gettin dark too dark to see
    G                D           Am
    I feel am knockin on heavens door
    G              D                C   
    
    Knock knock knockin on heavens door    <Thats the bob dylan way
    G              D                 C
    
    
    

    Sweet Child O'Mine (Minus the Intro)

    Code:
    Voicings EADGBE
         D   xx0323
         C   x32030 
         G   320033
         A5  x022xx
         B5  x244xx
         C5  x355xx
         D5  x577xx
    She's got eyes that it seems to me
    D
    Remind me of childhood memories
    C
    Where every thing was fresh as the bright blue sky
    G                                               C
    Now and Then when i see her face
    D
    she takes me away to taht special place
    C
    and if i stay there too long. i'l pro'lly break down and cry
    G                                                         C
    
    ohhhhhhhh,   whoau ohhhhh....sweet child of mine..........
    A5(rest) A5  A5B5   C5       ---------D5-----------  
           (quick ^^ succesion)    
    ohhhhhhhh,   whoau ohhhhh....sweet love of mine
    A5(rest) A5  A5B5   C5       ---------D5-----------    
           (quick ^^ succesion)         
    
     
  5. vini

    vini Repeat Offender

    daaktur plz tell the position of these chords as well
    tahda!!
     
    JAZZ likes this.
  6. vini

    vini Repeat Offender

    zooom..iL say..u learn G firstly and F later..coz F might be a bit tuff..so do learn G asap..coz then u can play many more songs..iL try&suggest u..u learn to play G first :grin: ok?

    tahda!!
     
  7. DrSaurabh

    DrSaurabh Wh@+s Up D0C

    and more
    Wild thing
    Code:
    Wild thing
    A      A       A D  E
    You make my heart sing
    D                A     A D E
    you make evrything groovy
    D                   A     A D E
    wild thing
    A      A
    
    
    Wild thing                  |
    i think i love you          |
    But i wanna know for sure   |-----After every verse play this...A G6 A
    C'mon and hold me tight     |     G6=(xx0000)
    You Move me                 |
    
    
     
  8. akkyy21

    akkyy21 #%@!$&

    @ doc - I know,.. i meant the chords man!

    These ones,...

    Code:
    Metallica-nothing else matters
    
    Em                 D      C
    So close no matter how far
    Em                    D             C 
    Couldn't be much more from the heart
    Em               D         C
    Forever trusting who we are
    G   B            Em
    And nothing else matters
    
    Em             D            C
    Never opened myself this way
    Em                       D      C
    Life is ours, we live it our way
    Em                      D       C
    All these words I don't just say
    G   B            Em
    And nothing else matters
    
    Em               D          C
    Trust I seek and find in you
    Em               D            C
    Every day for us something new
    Em              D             C
    Open mind for a different view
    G   B            Em
    And nothing else matters 
    
    {chorus}
    C A D                          C
         Never cared for what they do
      A D                          C
         Never cared for what they know
      A D      Em
         But I know
    
    {repeat 1st verse}
    {chorus}
    {repeat 2nd and 3rd verse}
    
    C A D                          C
         Never cared for what they say
      A D                          C
         Never cared for what they play
      A D                          C
         Never cared for what they do
      A D                          C
         Never cared for what they know
      A D      Em
         But I know
    
     
  9. DrSaurabh

    DrSaurabh Wh@+s Up D0C

    and one more....this has been around forever...but never the way i liked it:)

    Summer of 69
    Code:
    palm mute the intro
    intro
    E||--2--------2--------------|--------------------------|
    B||--3--------3--------------|--------------------------|
    G||--2--2--2--2--2--2--2--2--|--2--2--2--2--2--2--2--2--|
    D||--0--0--0--0--0--0--0--0--|--0--0--0--0--0--0--0--0--|
    A||--------------------------|--------------------------|
    E||--------------------------|--------------------------|
                                                          
    --2--------2--------------|--------------------------|
    --3--------3--------------|--------------------------|
    --2--2--2--2--2--2--2--2--|--2--2--2--2--2--2--2--2--|
    --0--0--0--0--0--0--0--0--|--0--0--0--0--0--0--0--0--|
    --------------------------|--------------------------|
    --------------------------|--------------------------|
           I got my first real Six string
                                                          
    --------------------------|--------------------------|
    --2--------2--------------|--------------------------|
    --2--------2--------------|--------------------------|
    --2--2--2--2--2--2--2--2--|--2--2--2--2--2--2--2--2--|
    --0--0--0--0--0--0--0--0--|--0--0--0--0--0--0--0--0--|
    --------------------------|--------------------------|
           Bought it at the five and dime
                                                         
    --2--------2--------------|--------------------------|
    --3--------3--------------|--------------------------|
    --2--2--2--2--2--2--2--2--|--2--2--2--2--2--2--2--2--|
    --0--0--0--0--0--0--0--0--|--0--0--0--0--0--0--0--0--|
    --------------------------|--------------------------|
    --------------------------|--------------------------|
           Played it till my fingers Bled
                                                         
    --------------------------|--------------------------|
    --2--------2--------------|--------------------------|
    --2--------2--------------|--------------------------|
    --2--2--2--2--2--2--2--2--|--2--2--2--2--2--2--2--2--|
    --0--0--0--0--0--0--0--0--|--0--0--0--0--0--0--0--0--|
    --------------------------|--------------------------|
           Was the summer of 69
                                                         
    --2--------2--------------|--------------------------|
    --3--------3--------------|--------------------------|
    --2--2--2--2--2--2--2--2--|--2--2--2--2--2--2--2--2--|
    --0--0--0--0--0--0--0--0--|--0--0--0--0--0--0--0--0--|
    --------------------------|--------------------------|
    --------------------------|--------------------------|
           Me and some boys from school
                                                         
    --------------------------|--------------------------|
    --2--------2--------------|--------------------------|
    --2--------2--------------|--------------------------|
    --2--2--2--2--2--2--2--2--|--2--2--2--2--2--2--2--2--|
    --0--0--0--0--0--0--0--0--|--0--0--0--0--0--0--0--0--|
    --------------------------|--------------------------|
           Had a band & we tried real hard
                                                         
    --2--------2--------------|--------------------------|
    --3--------3--------------|--------------------------|
    --2--2--2--2--2--2--2--2--|--2--2--2--2--2--2--2--2--|
    --0--0--0--0--0--0--0--0--|--0--0--0--0--0--0--0--0--|
    --------------------------|--------------------------|
    --------------------------|--------------------------|
           Jimmy quit, jody got married
                                                                               
    --------------------------|--------------------------|
    --2--------2--------------|--------------------------|
    --2--------2--------------|--------------------------|
    --2--2--2--2--2--2--2--2--|--2--2--2--2--2--2--2--2--|
    --0--0--0--0--0--0--0--0--|--0--0--0--0--0--0--0--0--|
    --------------------------|--------------------------|
           Shoul've known, we'd never get far
    
    And when i look back now
    Bm                   A
    the summer seemed to last forever
    D                          G
    and if i had a choice
    Bm                   A
    i wud always wanna be there
    D                          G
    those were the best days of my life
    Bm                            A
    
    then go for
    Dsus2 D Dsus4, Asus2 A Asus4 (arpeggiated or otherwise)
    
    
     
  10. DrSaurabh

    DrSaurabh Wh@+s Up D0C

    awrite......cool chords........
    Zoom man, seriously learn G re.....nothin doin without G,
     
  11. zoomingrocket

    zoomingrocket TeChNiCaL AdMiNiStRaToR

    Ok.. "G" it is, first!!
    On to it.. Give me two days to practice....

    And yes... "F" is out of question right now! I am muting all the strings while playing "F"... So no SOUND! :annoyed:
    Anyways...i wud learn it slowly!


    REgards,
    Zooom..!!
     
  12. DrSaurabh

    DrSaurabh Wh@+s Up D0C

    dude, F can be easy....as crazy as it might sound.......and as much criticism it might evoke.....sincere advice learn to play it with barre first..then the normal one without bar becomes easier...

    these are the simpler voicings of G
    all are on open strings
    Code:
    E||--3----3----7---------|--10----3----3---------|--3---------||
    B||--0----3----8---------|--0-----0----3----0----|--0----0----||
    G||--0----0----7----4----|--0-----0----0----0----|--0----0----||
    D||--0----0---------0----|--9-----0----0----0----|--0----0----||
    A||--2----2---------2----|--10--------------2----|--2----2----||
    E||--3----3---------3----|-----------------------|-------3----||
    
    
     
  13. DrSaurabh

    DrSaurabh Wh@+s Up D0C

    ok..these are the simpler versions of F which you can play now ....so that the F chord doesnt frustate the crap out of you:)..once you get these the standard F=(133211) will be much easier hope this helps :)

    Code:
                                                                             
    E||-----------------0----|------------1----1----|--5----8-----5---------|
    B||-------1---------1----|------------1----1----|--6----10----6---------|
    G||--2----2----2----X----|--2--------------2----|--5----10--------------|
    D||--3----3----3----X----|--3-------------------|------------------7----|
    A||------------3----0----|--0----0--------------|------------------8----|
    E||-----------------1----|--1----1--------------|-----------------------|
    
    
                                       
    --------------13----------|------||
    --10----------13----------|------||
    --10----------14----14----|------||
    --10----------------15----|------||
    --------12----------15----|------||
    --------13----------------|------||
    
    
    
     
  14. aleric

    aleric New Member

    Yeah, Zoom try the barre version of F. Thats easier to learn.

    And once you are through with that, you just need to transpose to get a new chord. Happy learning.
     
  15. Alfons

    Alfons C.F.H

    @ dr saurabh

    i think wild thing goes
    like


    X:444444

    G# C# D# C# and then
    X# G# X# G#

    Wild thing
    U make my heart sing
    U'r my everything
    I think I love U
    I think I love U
     
  16. JAZZ

    JAZZ New Member

    ohh ...zoom u hav strted learning....nice to hear that
     
  17. zoomingrocket

    zoomingrocket TeChNiCaL AdMiNiStRaToR

    Doc... i am newbie :p:

    Give me few instructions in LAYMAN's terms :)

    Anyways..i am learning G now...
    Any Hindi songs suggested?

    REgards,
    Zooom..!!
     
  18. vini

    vini Repeat Offender

    Code:
    Pride (In the name of love)
    Intro: (A  D  G  Em)  x2
    
    A                    D           G                Em
    One man come in the name of love one man come and go
    A                   D      G                 Em
    one man come he to justify One man to overthrow
    
             A       D         G                   Em
    (In the name of love what more in the name of love)
    
    A                    D                G             Em
    One man caught on a barbed wire fence one man he resist
    A                       D           G                        Em
    One man washed up on an empty beach one man betrayed with a kiss.
    
    Coro    Solo: (A  D  G  Em)  x4
    
          A     D        G     Em
    uh uh uh uh uh uh uh uh uh uh
    
    A               D         G                    Em
     Early morning, April 4 shot rings out in the Memphis sky.
    A                D                       G                    Em
     Free at last, they took your life they could not take your pride.
    
    (Coro)  x2
    
        A           D           G           Em
    (oh oh oh oh oh oh oh oh oh oh oh oh oh oh oh oh)  hasta el final
    
    
    iL think of sum hindi song..will tell ya then :)

    tahda!!
     
  19. vini

    vini Repeat Offender

    Code:
    (Tu Hai Aasmaan Main Teri Yeh Zameen Hai 
    A A
    Tu Jo Hai To Sab Kuch Hai Na Koi Kami Hai )….(2)
    G A
    Tu Hi Dil Hai Tu Hi Jaan Bhi Hai
    G A 
    Tu Khushi Hai Aasra Bhi Hai
    G D 
    Teri Chaahat Zindagi Hai 
    D A
    Tu Mohabbat Tu Aashiqui Hai, Tu Aashiqui Hai (2) 
    D G A G A
    Tu Hi Dil Hai ……………Tu Aashiqui Hai (4) 
    
    --------Interlude--------
    Pyaar Mein Hi Dhoondhta Hoon 
    D 
    Pyaar Se Hi Poojta Hoon Tujhe
    D 
    A-G-A A-G-A
    Pyaar Mein Hi Dhoondhte Hai
    D 
    Pyaar Se Hi Poojte Hai Tujhe
    D 
    Tera Chehra Roshni Hai
    D A
    Tu Mohabbat Tu Aashiqui Hai Tu Aashiqui Hai
    G D A G A
    
    Tu Hai Aasmaan … Tu Aashiqui Hai 
    
    --------Interlude--------
    Har Safar Mein Har Nazar Mein 
    D 
    Har Sahar Main Dekhta Hoon Tujhe
    D 
    A-G-A A-G-A
    Har Safar Mein Har Nazar Mein 
    D 
    Har Sahar Main Dekhte Hai Tujhe
    D 
    Pyaar Hai Jo Tu Wohi Hai
    D A
    Tu Mohabbat Tu Aashiqui Hai Tu Aashiqui Hai
    
    
    uL find some more hindi chords here>> http://www.indianguitartabs.com/showthread.php?t=1524&highlight=jhankaar
     

Share This Page