Shree Ganeshachi Aarti Tabs

Discussion in 'Marathi Guitar Tabs - Submit or Request' started by metal_fan69, Dec 22, 2008.

  1. metal_fan69

    metal_fan69 To Live Is To Die

    This is kind of a beginner tabs

    good for practice.....

    Enjoy!

    Shree Ganesh Aarti
    Singer : Lata Mangeshkar


    Sukhakarta Dukhharta

    E----------------------------------
    B---10-10-9h10h9-7----9-9-7h9h7-5--
    G----------------------------------
    D----------------------------------

    vaarta vighnachi ho vaarta vighnachi

    E--------------------------------------------
    B------5-7-7-5---5-7-7------5-7-7-5---5-7-7--
    G--------------7--------------------7--------
    D--------------------------------------------


    Nurvi Purvi Prem Krupa Tayachi

    E-------------------------------------------
    B------9-9h12-10-10-9-7-10-9-7---7----------
    G--6-9-------------------------9---7--------
    D-------------------------------------------

    repeat for

    Sarvaangi sunder utee shendurachi
    kanthee jhalke maal muktafalanchi


    Jai Dev Jai Dev

    E-----------------------
    B----------9-12-12-12---
    G--6-9-9-9--------------
    D-----------------------


    Jai Mangalmurtee


    E---7sl10-10-10-10-10-----
    B-9-----------------------
    G-------------------------
    D-------------------------

    Darshan Matre Man Kaamana Purtee


    E-9-10-9h10h9-7-----------------------
    B---------------10-10-9-10-9-7--------
    G------------------------------9-7----
    D-------------------------------------
     

Share This Page