Shayad - Full Version

Discussion in 'Pakistani Guitar Tabs - Submit or Request' started by Orange Guitar, Oct 13, 2005.

Thread Status:
Not open for further replies.
  1. Orange Guitar

    Orange Guitar IGT's ALLROUNDER

    SONG : SHAYAD

    BAND : CALL

    TABBED BY : ORANGE GUITAR

    ------------------------------------------------------

    THESE TABS ARE NOT COPIED FROM OTHER SITE...THIS
    IS MY WORK ! COPY PASTING THESE TABS ARE STRICKLEY
    PROHIBITED

    ------------------------------------------------------

    Allright...the intro is on sad pianos and screaming
    of children. Here is the intro for which all was
    begging.

    | DROP TO D TUNING |

    FIGURE OUT TIMING AND STRUMMING YOURSELF.

    Heavy Distorted Electric Guitar:

    |--x-x-x----x-x-x-x-x-x-x-x--x-x-x-x-x---x-x-x---|
    |--x-x-x----x-x-x-x-x-x-x-x--x-x-x-x-x---x-x-x---|
    |--x-x-x----x-x-x-x-x-x-x-x--x-x-x-5-5---x-x-x---|
    |--0-3s5----0-0-0h3p0-8-8-8--5-7-8-5-5---3-2-0---| Play 2 times.
    |--0-3s5----0-0-0h3p0-8-8-8--5-7-8-3-3---3-2-0---|
    |--0-3s5----0-0-0h3p0-8-8-8--5-7-8-x-x---3-2-0---|
    PLAY FAST PLAY FAST

    The verse only got electronic drumming. A small is
    played in the ending verses. I am not sure about
    this riff.

    |--5-3-1-0-1-5-5--5-3-1-0-1----------------------|
    |---------------------------3-3------------------|
    |------------------------------------------------|
    |------------------------------------------------|
    |------------------------------------------------|
    |------------------------------------------------|

    Now the chorus with same chords.

    |--x-x-x----x-x-x-x-x-x-x-x--x-x-x-x-x---x-x-x---|
    |--x-x-x----x-x-x-x-x-x-x-x--x-x-x-x-x---x-x-x---|
    |--x-x-x----x-x-x-x-x-x-x-x--x-x-x-5-5---x-x-x---|
    |--0-3s5----0-0-0h3p0-8-8-8--5-7-8-5-5---3-2-0---| Play 2 times.
    |--0-3s5----0-0-0h3p0-8-8-8--5-7-8-3-3---3-2-0---|
    |--0-3s5----0-0-0h3p0-8-8-8--5-7-8-x-x---3-2-0---|
    PLAY FAST PLAY FAST

    Now the interlude. Use wah-wah pedal. Based on power
    chords. Play all chords roughly.

    |------------------------------------------------|
    |------------------------------------------------|
    |---------------------5-7-7----------------------|
    |-0-0-0---6-6--0-0h3--5-7-7----------------------| Play 2 times.
    |-0-0-0---6-6--0-0h3--3-5-5----------------------|
    |-0-0-0---6-6--0-0h3-----------------------------|

    Now riff between screaming. This goes on till song
    ends.

    |------------------------------------------------|
    |------------------------------------------------|
    |------------------------------------------------|
    |--0h1-0h1-0-0-6-6-6--0h1-0h1-3s0----------------| Keep Playing
    |--0h1-0h1-0-0-6-6-6--0h1-0h1-3s0----------------|
    |--0h1-0h1-0-0-6-6-6--0h1-0h1-3s0----------------|

    A very simple song to play. Even a kid can play it.
    Plz....reps day daina....mujhay zaroorat hai :)
     

    Attached Files:

    rizaaj likes this.
  2. Orange Guitar

    Orange Guitar IGT's ALLROUNDER

    download the attachment....it will help in uderstanding!
     
  3. BIG_EVIL

    BIG_EVIL Guitaring Machine

    ORANGE..jiger....cha gaya hay
    reps coming ur way dude
     
  4. Aka Oz

    Aka Oz /\K/\ - Ozy

    fittttttttt hai yaaaaaaar reps to u
     
  5. Lahori_rocker

    Lahori_rocker Guitar God left IGT

    aa gaya hai tay cha gaya hai tha ker kay ..........lol great tabs rep points for :)
     
  6. Orange Guitar

    Orange Guitar IGT's ALLROUNDER

    thnx u guyz....biggie and lahori...abbhi tak reps nahi mileen :) other guyz also comment!
     
  7. Aka Oz

    Aka Oz /\K/\ - Ozy

    i hav already gaved u rep
     
  8. BIG_EVIL

    BIG_EVIL Guitaring Machine

    ya me 2........
     
  9. grimreeper_007

    grimreeper_007 New Member

    man i couldnt understand the tabs
     
  10. Orange Guitar

    Orange Guitar IGT's ALLROUNDER

    aka...i got urs...with grey dot :) bigevil...i didn't get any reps.

    grim: listen to song...i said that u have to adjust strumming and timing your self!
     
  11. rizaaj

    rizaaj Forum Leader

    nice effort orange.. havent tried it though.. still reps comin ur way
     
  12. larsan

    larsan K-Dash

    rizaaj u give every one reps but not me..anyways never mind.......we r still gud frnds....orange bro..i think u better check ur chord not matching i guess:)..plz dun mind:)
     
    rizaaj likes this.
  13. BIG_EVIL

    BIG_EVIL Guitaring Machine

    wasay orange...intro is not that gud
     
  14. Quadrophenia

    Quadrophenia New Member

    i dont think its correct.
     
  15. BIG_EVIL

    BIG_EVIL Guitaring Machine

    Orange!!!!!!!!!!!!??????????
     
  16. Orange Guitar

    Orange Guitar IGT's ALLROUNDER

    yar.....itna correct intro hai...ok....i will send recordings....yar waisay itna correct intro hai...u guyz are not playing it right....just listen to shayad in slow speed....WMP got this feature...it is 100% correct!!!! i swear!!!! i think u guyz are not understanding the tabs.....shall i post a detail version!!!!

    AND DONT SAY THAT THESE ARE WRONG UNTILL U HAVE TRIED THE TABS!!!!!!

    @Rizaaj: thnx man!!!
     
  17. BIG_EVIL

    BIG_EVIL Guitaring Machine

    ok ....thanx for the idea...the WMP thingy
    ill try it out then ill let u know
     
  18. Quadrophenia

    Quadrophenia New Member

    post recordings..the roots dont match. i have my doubts.
     
  19. Aka Oz

    Aka Oz /\K/\ - Ozy

    buddy gettin dis msg when i giv u rep
    You must spread some Reputation around before giving it to Orange Guitar again.
     
  20. viquar

    viquar New Member

    wow this song is gr8
     
Thread Status:
Not open for further replies.

Share This Page