shallum's MY GUARDIAN NGEL TABS

Discussion in 'Pakistani Guitar Tabs - Submit or Request' started by shak, Dec 28, 2004.

  1. shak

    shak Harrr!

    shallum's MY GUARDIAN ANGEL TABS (instrumental)

    right guys...here it is..the tabs to new shallums instrumental...it is in very early stage ...and i havent tabbed most of it but this is a start....i am hopping that you guys will post your contributions to complete this master piece (i am counting on you guys!)

    the accoustic solo is missing (i have a idea... try using the e minor pentatonic scale) but i cant be bothered really...so here is the electric part

    s=slide
    \=slide up the neck
    /=slide down the neck
    &=REtard


    DROP C TUNING
    |-----7-11-9----9-10-9-------------------------------------------------------------10-(10)9|
    |9s10--------12--------10h12p10-\9\8-8s9h10-/12--10h12p10s9-----------------9-10-12--------|
    |-----------------------------------------------------------9s7s9/14-13-12-----------------|
    |
    |
    |

    |12s14-12s10-9-9h10p9-----------------------------------------------9s10-9-9-12s14-12s10-10|
    |---------------------12-10\9-8h9s12-/14--------9s10\9------9h10h12------------------------|
    |-----------------------------------------9s7h9--------------------------------------------|
    |------------------------------------------------------------------------------------------|
    |------------------------------------------------------------------------------------------|
    |------------------------------------------------------------------------------------------|

    |12p10s9--------------------
    |--------12-10-9----9h10h12-
    |----------------11---------
    |
    |
    |





    |
    |12^^^^-9^^^^-8^^^^-8h9p8---7---------12-9-8-8h9p8s7h9-9p7--------|
    |-------------------------9---9s7h9-----------------------9p7h9p7-|
    |-----------------------------------------------------------------|
    |
    |

    & &
    |----------------------------------------------------9s10--7-10b13,b13-9-7----|
    |12^^^^-9^^^^-8^^^^-8h9p8---7--------12-9-8-9\8/9s14-----------------------9--|
    |-------------------------9---9s7h9-------------------------------------------|
    |
    |
    |

    |-----------7-9-10-10-10-9h10p9p7----9-9--7h9p9----------------|
    |-------7-9-----------------------10------------10-9----9-10-9-|
    |7-9-10----------------------------------------------12--------|
    |
    |
    |

    |--------11-12/16-14-16s17-16h17p16p12---12-14-12\10-10\9----9------------|
    |9-10-12-------------------------------15-----------------12---12\10-9-12~|
    |-------------------------------------------------------------------------|
    |
    |
    |

    copy paste these in notepad (font:lucida console type: regular font size:10)
     
  2. shak

    shak Harrr!

    oooohhh...sorry guys the first three staffs are actually the acoustic intro part but its very dodgy and incomplete....the electric part starts from the fourth staff...the last staff is the chorus..(its 100% correct believe me)
     
  3. jayswami

    jayswami Blue J

    cool stuff.. but he hits lots of off notes... like in the intro.. when he slides.. lots of besura notes his notes are at 90%.. not 100% to my ears.. another example is at 2:52 secs another mistake.. why do they have mistakes in a studio recording i wonder? budget constraints i guess..
    also it kinda reminds me of nadia by jeff beck.. i dont know if thats on the back of the guitarist's mind...
    cool stuff none the less
    and oh now coming to the tabs.. it looks elaborate.. will give it to an amru guitarist and ask him to play.. then send my feedback.. good job though.. looks pretty elaborate..
     
  4. mani_rawalpindi

    mani_rawalpindi GUNS AND GUITARS

    nice work keep conributing like this man
     
  5. rizaaj

    rizaaj Forum Leader

    nice tabs... will try out tonight and let u know.... thanx any ways
     
  6. shak

    shak Harrr!

    i had to make these elaborate cuz he does so much in so little time that i had to include everthing otherwise it doesn;t sounds allright..and yeah plz just dont stop here try to take these further ...i have tabbed some more of it and i'll post it soon
     

Share This Page