Sha na na - Euphoria

Discussion in 'Hindi Guitar Tabs - Submit or Request' started by light_of_erindi, May 26, 2005.

  1. light_of_erindi

    light_of_erindi New Member

    This is a catchy song of their first album...I did not see any tabs for it on IGT...so I'm posting them myself...which r tabbed by me :)

    Here goes...
    Code:
    
    
    Song : Sha na na
    Artist: Euphoria
    
    
    Tuning: Standard
    
    Chord key:
    D# --> 668886
    Em --> 779987 
    C# --> 9-11-11-10-9-9 ...used in the strting lead only
    C# --> 446664 ...used throughout rest of the song
    G# --> 466544
    B  --> 799877
    
    This is the starting lead...                                        
    
    Figure 1:
    
     |<----------This part is without distortion-------------------->|  A little dist here
    
                                                                       D# Em C#
    E|-----6-6-----(6)-9x-9x-------------------------6-6-----(6)-9x-9x--6-7--9---------------  
    B|-7h8-----7h8---------------9x-----9x-9x----7h8-----7h8------------8-8--9---------------
    G|-------------------------8------8---------------------------------8-9--10--------------
    D|-----------------------8------8-----------------------------------8-9--11--------------
    A|--------------------------------------------------------------------7--11--------------
    E|--------------------------------------------------------------------7--9---------------
                                                                             
    
    Strum(downstroke) the last chord multiple times...listen to the song for exact
    
    timing of down strokes      
    
       This is the lead on electric with a little distortion....
    
    Figure 2:
    
    E|---------------------------------------------------------------------------------------  
    B|-8-8-8/9-----------------------------11-8-9p8-8h9p8------------------------------------
    G|---------8x-8x------8x-8x----11-10h11---------------h10-10-8------------8x-8x-8x-8x----
    D|---------------8h10-------10---------------------------------10-8--8h10----------------
    A|---------------------------------------------------------------------------------------
    E|---------------------------------------------------------------------------------------
                                                           ^
                                                           |
                                                           |
                                This note means just hammer the string on 10 don't pick it.
    
    
    Chords:
    NC     D#         C#        G#   C#
    Dil Ka haal tumko aaj hai sunana
    D#     C#         G#  C#
    sach kahoonga jaanlo
        D#         C#
    .....Sha na na na na na
    G#           C#
    Tumko hai batana..na
    D#       C#            G#   C#
    Tumpe marta hoon....maanlo
    
    B                   G#
    kya kahoon kya ho gaya...
    B                  D#
    Dil deewaana kho gaya
    C#    D#       G#
    Ooooh yeah....tumko hai samjhana
    C#    D#      B                     G#  
    oooh yeah....matkil ho tum...na na na na
    
    
    Chorus:
    D#                     D#
    Sha na na na na........Sha na na na na
    C#                     G#                  D#
    Sha na na na na........Sha na na na na na na na   (2 times )
    
    
    
    Play figure 2 as soon as chorus is about to end till the start of new verse
    There's possibly a small variation at the end of the figure but i leave it to u 
    
    
    Verse 2: Same echords as verse 1.
    
    Meri baahon mein tum aake so jaana
    
    Sharm kaisi Tumko
    
    ....Sha na na na na
    
    Tumse kya chhupana..na 
    
    Ek baar dekho mujhko...dekho na
    
    Pyar ka jaadu chal gaya
    
    Mein tumhara ho gaya
    
    ooooh yeah....jhoota hai bahana
    
    ooooh yeah....matkil ho tum na na na na
    
    
    
    Chorus
    
    
    lead
    
    
    yeah......pyaar ka jaadoo chal gayaa...
    
    oooh mein tumhara ho gaya....
    
    ooooh yeah...chhodo tum satana
    
    ooooh yeah....matkil ho tum na na na na
    
    naaaaaaaa   oh....sha....haannn
    
    
    (Here...there's a lead on Bass guitar....since i don't have one :)...i can't tell u 
    
    what's played...)
    
    sha na na na na.....(female vocal) 2 times
    
    oh.....(I don't know what exactly he says..some rapping i guess..:))
    
    Chorus
    
    
    Enjoy!!.... :beer:
     
  2. harshitgupta

    harshitgupta New Member

    can someone play this and upload it on youttube?
     

Share This Page