Self Composition

Discussion in 'Hindi Guitar Tabs - Submit or Request' started by umarboy, Nov 19, 2003.

  1. umarboy

    umarboy Tabber

    Self Compostion
    tabed by umar
    comments @ umarboy@hotmail.com


    E --------------------------------------
    B --------------------------------------
    G --------------------------------------
    D --------------------------------------
    A -------8^----8-8----------------------
    E -7-7-9-----------9-7^------------------


    E --------------------------------------
    B --------------------------------------
    G --------------------------------------
    D ---------7^---7-8-8(10)-10-10-8-7-5---
    A -------8------------------------------
    E -7-7-9--------------------------------




    E --------------------------------------
    B --------------------------------------
    G --------------------------------------
    D -5-7(8)-8--8-8-7------------------------------
    A -----------------8-7-8-------------------
    E -----------------------7-9--------------




    E --------------------------------------
    B --------------------------------------
    G --------------------------------------
    D ---------7-8-7-10-7-8-7-----------------------
    A -------8---------------8----------------
    E -9-7-9-------------------9-7---------------



    E --------------------------------------
    B --------------------------------------
    G --------------------------------------
    D ---------7-8-7-10-7-8-7-----------------------
    A -------8---------------8----------------
    E -9-7-9-------------------9-7---------------





    E --------------------------------------
    B --------------------------------------
    G --------------------------------------
    D -------5-6-5-8-5-6-5-------------------------
    A -----6---------------6------------------
    E -5-7-------------------7-5---------------




    E --------------------------------------
    B --------------------------------------
    G --------------------------------------
    D -------5-6-5-8-5-6-5-------------------------
    A -----6---------------6------------------
    E -5-7-------------------7-5-3-2-0------------



    E --------------------------------------
    B --------------------------------------
    G --------------------------------------
    D --------------------------------------
    A --------------------------------------
    E --0-2-3-5---5-3-5(7)---7-5-7(9)-9-7-9--------------------



    E --------------------------------------
    B --------------------------------------
    G -----------5------3-------1-------1-------
    D -------5-6---6-5----5-3-----3-1-3---3-----------
    A -----7---------------------------------
    E -5(7)-------------------------------------

    E --------------------------------------
    B --------------------------------------
    G -----0-------0-------0-------------------
    D ---3---3---3---2---2-----------------------
    A -0-------0-------0-----------------------
    E --------------------------------------

    ok im done
    hope ull like it :D
     

Share This Page