Self Composition - Kala

Discussion in 'Hindi Guitar Tabs - Submit or Request' started by umarboy, Aug 29, 2003.

  1. umarboy

    umarboy Tabber

    Kala

    Song - Allah Pak Diye Kasme Kala Bara Tu
    Tabed by Umar
    comments @ Umarboy@hotmail.com


    E-------5-5-5-7-5-5---7-9-7-5-5-------------
    G-5-5-7-------------------------------------
    D-------------------------------------------
    A-------------------------------------------
    E-------------------------------------------
    Allah Pak Diye Kasme Kala Bara Tu



    E-------5-5-5-7-5-5---7-9-7-5-5-------------
    G-5-5-7-------------------------------------
    D-------------------------------------------
    A-------------------------------------------
    E-------------------------------------------
    Allah Pak Diye Kasme Kala Bara Tu



    E--12-12-12-12-12-12-9-9-9-9-9------
    G---------------------------------------12-----
    D-------------------------------------------
    A-------------------------------------------
    E-------------------------------------------
    Raaat nu kithey jana Nazer nahin aana we




    E--7-7-7-7-5-2-0-2-5-5-5-
    G------------------------------------
    D-------------------------------------------
    A-------------------------------------------
    E-------------------------------------------
    Saweere andaa eng lugda raaat aii ae



    E-------5-5-5-7-5-5---7-9-7-5-5-------------
    G-5-5-7-------------------------------------
    D-------------------------------------------
    A-------------------------------------------
    E-------------------------------------------
    Allah Pak Diye Kasme Kala Bara Tu



    Me and My brother made this song
    its so hilarious lol
    iv recorded the tune too
    so temme if i can upload it somewhere on this site so taht u guyz culd hear this and play


    Here is the file: http://www.freewebs.com/igt/kasme.wav
     
  2. Zeus

    Zeus New Member

    Attach the file here yaaar! You can attach upto 1mb. How big is the file?
     
  3. umarboy

    umarboy Tabber

    ops

    bad man
    file is more than 1 mb
    but less then 2 i guess
    so like...
    i dun feel like uploading anywhere else
    i duno if i have space on my yahoo id
    i dun actaully use it
    chalo if ill get the admin on my msn to i will send him the file and its upto him where to upload it ..
    ok with u admin?
     
  4. HellRazor

    HellRazor New Member

    Did you speak with the admin? When are you going to post the file? Im very intrested in listining to this song:rockon:
     
  5. slash

    slash New Member

    Looking forward for it....:)
     
  6. umarboy

    umarboy Tabber

  7. esgallindeion

    esgallindeion Minstrel Knight

    No, its not working for me.
     
  8. lord_neo

    lord_neo Guest

Share This Page