Sanwal-Parvaaz

Discussion in 'Pakistani Guitar Tabs - Submit or Request' started by invincible2k, Oct 21, 2004.

  1. invincible2k

    invincible2k New Member

    Sanwal - Parwaaz.


    Scale: A aeolian


    e|-----------------------|-----------------|-----------------------|
    B|----12---10----12---10-|---8---6---8---6-|---13---12---13---12---|
    G|--9----9-----9----9----|-7---7---7---7---|-9----9----9----9------|
    D|-----------------------|-----------------|-----------------------|
    A|-----------------------|-----------------|-----------------------|
    E|-----------------------|-----------------|-----------------------|

    |-----------------|---------------------|
    |---8---6---8---6-|---10---8---10---8---|
    |-7---7---7---7---|-9----9---9----9-----|
    |-----------------|---------------------|
    |-----------------|---------------------|
    |-----------------|---------------------|


    e|----------------------|
    B|---12---10---12---10--|
    G|-9----9----9----9-----|
    D|----------------------|
    A|----------------------|
    E|----------------------|


    Am.................G
    YEH DIL, KYON TUMHARA,

    Am..........G
    ITNA BE YAQEEN HAI

    Em..........G
    AISA TO NAHIN HAI

    ...C.....G.........Am
    KE SANWAL, NAHIN RAHA

    Em.................G..........C........Am
    ISI DASHT KE UDHAR HAI, KOI DOOSRA KINARA

    Em.................G..........Am........C
    ISI DASHT KE UDHAR HAI, KOI DOOSRA KINARA


    ......Am........G...........C...........Am
    WAHAN JAO GE TO HOGA, KOI MUNTAZAR TUMHARA
     

Share This Page