Salee-Shehzad Roy AweSum Intro Tabs

Discussion in 'Pakistani Guitar Tabs - Submit or Request' started by ImR@|\|, Sep 14, 2005.

  1. ImR@|\|

    ImR@|\| GuiTar MaNiaC

    Here R the Tabs for awesum intro of Salee Tu manee Nehi.. Shehzads roy new album.. buRi Baat hay.. !

    |--------------------------------------------------------------------|
    |--------------------------------------------------------------------|
    |--------------------------------------------------------------------|
    |-----------------------------------------------7-7---5------------|
    |-----5--7-5-7--5--7--------5--7---5--7------------------------|
    |--7------------------------7---------------------------------------|

    |--------------------------------------------------------------------|
    |--------------------------------------------------------------------|
    |--------------------------------------------------------------------|
    |-----------------------------------------------7-7---5------------|
    |-----5--7-5-7--5--7--------5--7---5--7------------------------|
    |--7------------------------7---------------------------------------|

    |--------------------------------------------------------------------|
    |--------------------------------------------------------------------|
    |--------------------------------------------------------------------|
    |-----------------------------------------------7--6--5------------|
    |-----5--7-5-7--5--7--------5--7---5--7------------------------|
    |--7------------------------7---------------------------------------|

    |--------------------------------------------------------------------|
    |--------------------------------------------------------------------|
    |--------------------------------------------------------------------|
    |-----------------------------------------------7-7---5------------|
    |-----5--7-5-7--5--7--------5--7---5--7------------------------|
    |--7------------------------7---------------------------------------|

    |--------------------------------------------------------------------|
    |--------------------------------------------------------------------|
    |--------------------------------------------------------------------|
    |-----------------------------------------------7--6--5------------|
    |-----5--7-5-7--5--7--------5--7---5--7------------------------|
    |--7------------------------7---------------------------------------|


    Here is the UrL for the Intro.. that i recorded..

    http://www.geocities.com/devil_of_peace786/Salee.mp3
     
    larsan likes this.
  2. larsan

    larsan K-Dash

    nice work pal.................u rockzz..........hey man i have some probz wid bulleya solo played by zulfi....y dun u tab it as we all know that u r a gud solo tabber reps 4 u:)
     
  3. ImR@|\|

    ImR@|\| GuiTar MaNiaC

    bulleya.. :S.. lol..Zulfi nay jo bajaya.. !! .. WOh kahan say milay GA ??? any site..
     
  4. Aka Oz

    Aka Oz /\K/\ - Ozy

    yaar imran tou chaaya wah hai IGT Per.....Gr8 wrk imran
     
  5. J.J

    J.J The Guitar God

    hmm...good very good indeed...
     
  6. nadish

    nadish Active Member

    Dont waste ur time in tabbing out the crap songs like above...

    CRAP SONG
    CRAP LYRICS
    CRAP VDO
    CRAP MUSIC
    CRAP SINGER
    CRAP PERSONALITY
     
  7. larsan

    larsan K-Dash

    bro is main lolz ki kia baat hai.........call ke band ne cover gaya hai Bulleya.....aur zulfi ne uss manin solo bhajaya hai here is the link.........u tab this then i will consider u best guitarist....no doubt u are but phir bhi noori ka solo kia hai...to yeh kya baat hai:)


    [sNiP] main jaa ke live session main chk karo mil jaye ga:)
     
  8. ImR@|\|

    ImR@|\| GuiTar MaNiaC



    BhAi jaAn.. IF he was a Crap Singer... He wudnt be there on DhoOM 2005..
    The show held in Wembley LonDon.. I went to that show.. n believe me ... there was Rahim Shah , Abrar UL Haq , Faakhir , And shehzar roy.. .. n Shehzad Roy.. RoCked the MOSt.. of his Songs, Tera MuKhra Haseen , SAlee tU manEe NeHI , Teri SooRat N One song for peace.. that was i think.. in which shehzad does Alaaps.. Wooooooo WooOooOO.. SO i think.. Shehzad is a gud singer. n itz worth figurin out the tabs of his songs.. cuz he hardly adz guitar stuff into his songs :p:
     
  9. Lahori_rocker

    Lahori_rocker Guitar God left IGT

    agreed wid nadish.........
     
  10. larsan

    larsan K-Dash

    man dud u find the song..man try to post the tabs of solo plz:)
     
  11. ImR@|\|

    ImR@|\| GuiTar MaNiaC

    I would appreciate if you E-mail me.. Ur requests :) Cuz itz bit difficult to remember which onez ppl request.. As Sum r requesting Sari raat jaga ray , Meray Log , Peeli pati aur raji jani kee Gol Duniya.. So its better if u ppl mail me :) thanks
     
  12. nadish

    nadish Active Member

    Yarr Imran belive me that u've waited ur money in attending these kind of Concerts coz the singers u've mention above are all a big "CRAPPPPPPPPPPPPPPPPPPPPP"
     
  13. ImR@|\|

    ImR@|\| GuiTar MaNiaC

    lol.. den i think all the people coming from different countries were MaD.. Enjoyin more than.. Sharukh khanz show..
     
  14. larsan

    larsan K-Dash

    give me ur e-mail brother:)
     
  15. Spellbinder

    Spellbinder Crescentarian

    good work done
     
  16. Lahori_rocker

    Lahori_rocker Guitar God left IGT

    the whole song is crap waste of time.....................
     
  17. grimreeper_007

    grimreeper_007 New Member

    good wrk imran
     
  18. faraz khan

    faraz khan Fkay'zzz .......GoNe MaD!

    bhai kya hogaya shehzad is great you say crap personality i say great
    dont you know that he is very generous , he has made a school for poor which pays the poor children to learn .....
    I couldnt get your level of perfection
     
  19. faiqrock

    faiqrock XaiQ




    nadish said True....Shezad Is a Crap...and tht song aswelll
     
  20. rizaaj

    rizaaj Forum Leader

    well.. those who are against shehzad roy.. i guess this thread is not for them.. man atleast he is doing something .. he has the creativity.. hes not like the rock bands.. whose music in all songs is just alike.. he bring the fusion of local music and modern together.. and public likes it.. better than those headbangers ..
     

Share This Page