Sajan By Mekaal Hasan Band (Complete Chords and Solo Recording)

Discussion in 'Pakistani Guitar Tabs - Submit or Request' started by Orange Guitar, Dec 7, 2005.

  1. Orange Guitar

    Orange Guitar IGT's ALLROUNDER

    SONG : Sajan

    BAND : Mekaal Hasan Band

    TABBED BY : ORANGE GUITAR (GHAZANFAR ABBAS)

    ------------------------------------------------------

    THESE TABS ARE NOT COPIED FROM OTHER SITE...THIS
    IS MY WORK ! COPY PASTING THESE TABS ARE STRICKLEY
    PROHIBITED

    ------------------------------------------------------

    I am not posting the tabs of solo .... I am uploading
    a sound file...you can listen to it and get the idea of
    the solo...!!

    Intro is on these chords:

    |-0---0---0----0---0---0----x---5---5----0---0---0---|
    |-2---0---0----3---0---2----x---5---5----3---0---0---|
    |-2---1---2----2---1---2----7---7---6----2---1---2---|
    |-2---2---2----0---2---2----7---7---7----0---2---2---|
    |-0---2---2----0---2---0----x---x---7----0---2---0---|
    |-x---0---x----x---0---x----7---7---5----x---0---2---|

    Then guitar plays this arpeggio with the flute:

    |----------------------------------------------5-----|
    |--------0-------0---------------------------5-------|
    |------2-------1---------------------------7---------|
    |----2-------2-----(<play 3 times)-------7-----------|
    |----------------------------------------------------|
    |--2-------0---------------------------7-------------|

    Then the chorus with these chords:

    Sajan De Heth Baanh Sahdee (2 times)

    |--0-------0-------5-----5---------------------------|
    |--2-------0-------5-----5---------------------------|
    |--2-------1-------7-----6---------------------------|
    |--2-------2-------7-----7---------------------------|
    |--0-------2-------x-----7---------------------------|
    |--x-------0-------7-----5---------------------------|

    Kee Ker Aakhan Chadway Ariya (2 times)

    |----------------------------------------------5-----|
    |--------0-------0---------------------------5-------|
    |------2-------1---------------------------7---------|
    |----2-------2-----(<play 3 times)-------7-----------|
    |----------------------------------------------------|
    |--2-------0---------------------------7-------------|

    Sajan De Heth Baanh Sahdee (2 times)

    |--0-------0-------5-----5---------------------------|
    |--2-------0-------5-----5---------------------------|
    |--2-------1-------7-----6---------------------------|
    |--2-------2-------7-----7---------------------------|
    |--0-------2-------x-----7---------------------------|
    |--x-------0-------7-----5---------------------------|

    Then the flute solo...behind guitar playing this:

    Sajan De Heth Baanh Sahdee (2 times)

    |----------------------------------------------5-----|
    |--------0-------0---------------------------5-------|
    |------2-------1---------------------------7---------|
    |----2-------2-----(<play 3 times)-------7-----------|
    |----------------------------------------------------|
    |--2-------0---------------------------7-------------|

    |--0-------0-------5-----5---------------------------|
    |--2-------0-------5-----5---------------------------|
    |--2-------1-------7-----6---------------------------|
    |--2-------2-------7-----7------(2 times)------------|
    |--0-------2-------x-----7---------------------------|
    |--x-------0-------7-----5---------------------------|

    |----------------------------------------------5-----|
    |--------0-------0---------------------------5-------|
    |------2-------1---------------------------7---------|
    |----2-------2-----(<play 3 times)-------7-----------|
    |----------------------------------------------------|
    |--2-------0---------------------------7-------------|

    Then the verse with this arpeggio:

    Raat Hanairee Badal Kaniyan Baaj Wakeelan Mushkil Baniyan

    |-------0-------0----------0-------------5-----------|
    |------3-------3------------3-----------5------------|
    |-----1-------2--------------2---------7-------------|
    |------------0-----------0------------7--------------|
    |---2------------------------------------------------|
    |-----------------------------------7----------------|

    Baaj Wakeelan Mushkil Banyan

    |----0---------5--------------------|
    |-----2-------5---------------------|
    |------3-----7----------------------|
    |-----------7-----------------------|
    |--0--------------------------------|
    |---------7-------------------------|

    Dhaday Keeta Sidh Way Ariya Kee Ker Aakhan Chadway Ariya

    |-------0-------0----------0-------------5-----------|
    |------3-------3------------3-----------5------------|
    |-----1-------2--------------2---------7-------------|
    |------------0-----------0------------7--------------|
    |---2------------------------------------------------|
    |-----------------------------------7----------------|

    Kee Ker Aakhan Chadway Ariya

    |----0---------5--------------------|
    |-----2-------5---------------------|
    |------3-----7----------------------|
    |-----------7-----------------------|
    |--0--------------------------------|
    |---------7-------------------------|

    Kee ker aakhan chadway ariya

    |--0-------0-------5-----5---------------------------|
    |--2-------0-------5-----5---------------------------|
    |--2-------1-------7-----6---------------------------|
    |--2-------2-------7-----7------(2 times)------------|
    |--0-------2-------x-----7---------------------------|
    |--x-------0-------7-----5---------------------------|

    Chorus:

    Sajan De Heth Baanh Sahdee (2 Times)

    |----------------------------------------------5-----|
    |--------0-------0---------------------------5-------|
    |------2-------1---------------------------7---------|
    |----2-------2-----(<play 3 times)-------7-----------|
    |----------------------------------------------------|
    |--2-------0---------------------------7-------------|


    Solo:

    Not posting the solo coz of some reasons...this is the
    link to the solo's recording:

    http://www.soundclick.com/azurepk

    The solo got same chords and arpeggio playing behing it.

    Verse:

    Nit Bharnai Chatiyan Ik Din Jaa Say Chadway Ariya

    |-------0-------0----------0-------------5-----------|
    |------3-------3------------3-----------5------------|
    |-----1-------2--------------2---------7-------------|
    |------------0-----------0------------7--------------|
    |---2------------------------------------------------|
    |-----------------------------------7----------------|

    Ik Din Jaa Say Chadway Ariya

    |----0---------5--------------------|
    |-----2-------5---------------------|
    |------3-----7----------------------|
    |-----------7-----------------------|
    |--0--------------------------------|
    |---------7-------------------------|

    Kahay Hussain Faqeer Saein Da Nain Naina Gadway Ariya

    |-------0-------0----------0-------------5-----------|
    |------3-------3------------3-----------5------------|
    |-----1-------2--------------2---------7-------------|
    |------------0-----------0------------7--------------|
    |---2------------------------------------------------|
    |-----------------------------------7----------------|

    Nain Naina Gadway Ariya

    |----0---------5--------------------|
    |-----2-------5---------------------|
    |------3-----7----------------------|
    |-----------7-----------------------|
    |--0--------------------------------|
    |---------7-------------------------|

    Kee ker aakhan chadway ariya

    |--0-------0-------5-----5---------------------------|
    |--2-------0-------5-----5---------------------------|
    |--2-------1-------7-----6---------------------------|
    |--2-------2-------7-----7------(2 times)------------|
    |--0-------2-------x-----7---------------------------|
    |--x-------0-------7-----5---------------------------|


    Then the chorus with arpeggio and arpeggio goes on till
    end of the song:

    |----------------------------------------------5-----|
    |--------0-------0---------------------------5-------|
    |------2-------1---------------------------7---------|
    |----2-------2----(play accord. to song)--7----------|
    |----------------------------------------------------|
    |--2-------0----------------------------7------------|

    Yar...plz do postive comments..plz...!!!! and pretty
    exact tabs!!! wht do u say??????
     
  2. Orange Guitar

    Orange Guitar IGT's ALLROUNDER

    so Rizaaj............where are my points??????????????????
     
  3. shak

    shak Harrr!


    ^ what good are these tabs now?? .. not everyone can sing in that old punjabi+god knows what language!! .. so what good are the chords?? .. i was hoping more for the solo .. dunno what the reason is for not posting the solo .. but i think you should give that another thought ... gazanfar
     
  4. shak

    shak Harrr!

    oo forgot to say ... really nice effort :)
     
  5. grimreeper_007

    grimreeper_007 New Member

    yeah range it rox,waitin 4 solo.reps 4 u
     
  6. rizaaj

    rizaaj Forum Leader


    ahem.. which points? :p:

    aight.. dun worry.. nice effort.. lemme try and i will get back to you tomorrow..

    by the way.. how many points did i promise? :eek::
     
  7. Evo Guy 911

    Evo Guy 911 Banned

    Dude they are good, but not very good. I am working on it, will post up something soon. Nice effort. Keep it up. Bye
     
  8. Aka Oz

    Aka Oz /\K/\ - Ozy

    good wrkkkkkkkkkkk
     
  9. nadish

    nadish Active Member

    Yarr Orange Guitar!!! plz send the recording of the solo of this song.... waiting 4 it.... Ne way nice work...
     
  10. Irtiq@

    Irtiq@ New Member

    not a bad solo mate. sweet good shyt
     
  11. Orange Guitar

    Orange Guitar IGT's ALLROUNDER

    @nadish: i have posted the link to the recording of solo...chect it out!

    @Evo: I am confident that these chords are same as Mekaal played....I played it at DFS and my frnds appreciated me.....oh well....koi baat nahi!!!!!

    @Rizaaj: maybe that was 10,000 or 100,000...I am not hungry for points....I am hungry for appriciation!

    @shahrukh: man .. I can PM u the original solo...but I cant post it here!!!
     
  12. Aka Oz

    Aka Oz /\K/\ - Ozy

    orange plz givv me da solo tooo
     
  13. rizaaj

    rizaaj Forum Leader

    anyways.. nice work and point awarded.. mauj kar..
     
  14. shak

    shak Harrr!

    @orange ... dont get it but .. yeah ok .. pm me the tabs mate ..
     
  15. Orange Guitar

    Orange Guitar IGT's ALLROUNDER

    @shahrukh: okie...but it will take time to write the tabs...gimme 1 day....but dont forget to give reps.....!! :)

    @Aka Oz: i'll try......

    NO APPRICIATION FROM OTHERS........PLZ COMMENT....!!!

    THNX RIZAAJ FOR THE POINTS!!!!!!!!!!!!!!
     
  16. shak

    shak Harrr!

    i only give out reps to those who deserve them .. if your tabs ae good enuff. . you dont need to ask for them .. you will have my respect anyway :) and yeah thanks for taking time out for me ..
     
  17. m_waleed86

    m_waleed86 KhaMosh GhuStAk

    mast tabs hain yaar (4rm my point of view at least)...was searching for the damn arpeggios for time unknown....cool ....but post the solo too want to try that baby also.!!!!!!!!!
     
  18. ak&guitar

    ak&guitar THE INNER VOICE

    a-class effort,..............but solo do , reps lo.
     
  19. amirsimsibshako

    amirsimsibshako New Member

    Really nice job man.u rock.:D
    Thanx a lot
     
  20. Quadrophenia

    Quadrophenia New Member

    nice work 5 * orange keep it up. ;)
     

Share This Page