. : Sabh Bhula Key Intro Tabs : .

Discussion in 'Pakistani Guitar Tabs - Submit or Request' started by faiqrock, Jun 10, 2006.

  1. faiqrock

    faiqrock XaiQ

    Hey guys
    chk This Out just tabbed da Intro of Sab Bhula ke many ppl were talkin Abt Accurate Tabs So here they r...:p:
    Comments and Reps are Welcome ;)
    and ya The Tunning is DADGBD

    .:SpY_GaMe:. likes this.
  2. RoMeO_Gguru

    RoMeO_Gguru .::idiotic crybaby::.

  3. .:SpY_GaMe:.

    .:SpY_GaMe:. New Member

    ohhh need to tune guitar in the dbgad will try after eggjams ;)
  4. limaj_daas

    limaj_daas Guitar Pro Maniac

    Nice attempt faiq but i KNOW the song is played on Dadgad... i kno xulfi personally so trust me on this one. the intro by ahmed nadeem on ultimate guitar and on igt is as correct as it gets... if u want it better, add these chords to this:

    D ---------0-----5-----4-----7-----
    A -----0-----0-----0-----0-----0---
    G ---4---4-----4-----4-----4-----4-
    D -5-------------------------------
    A ---------------------------------
    D ---------------------------------

    D ---------0-----7-----5-----4-----
    A -----0-----0-----0-----0-----0---
    G ---6---6-----6-----6-----6-----6-
    D -7-------------------------------
    A ---------------------------------
    D ---------------------------------

    D -----0-------------0------------0-------0-------0-------
    A -------0-------0-----0------0-----0-------0-------0---0-
    G ---4-----4---4---4-----0--6---6-----6-------6-------6---
    D --------------------------------------------------------
    A --------------------------------------------------------
    D -5---------5-------------7------------7-------7---------

    then chord progression of:
    d major, then c major, then g major, then, f sharp minor, then g major

    D on tuning dadgad: 12-12-12-11-0-0
    F#m on tuning dadgad: 4-4-4-2-0-0
    G on tuning dadgad: 5-5-5-4-0-0
    C on tuning dadgad: 10-10-10-9-0-0

    verse riff is just an appareigo of those chords.

    acoustic interlude is the same as verse riff wid a few variations.

    solo u can find on ug...
  5. faiqrock

    faiqrock XaiQ

    hey limaj I know yar Zulfi played on DADGAD...:p:
    But this 1 is my Version so hehe...
    But da Notes are same :think:
  6. limaj_daas

    limaj_daas Guitar Pro Maniac

    hwo can they be the same? u hav to tune ur guitar down to A. it's like playin an open powerchord on standard tuning... imposible right! u hav to hav a drop d tuning right? same case here... 0 on B isn't the same as 0 on A... 2 whole frets worth of higher pitches. And then ur tabs on the G string should remain 6 and 4... which they dont... or maybe that wuz just a typo. good attempt however.
  7. faiqrock

    faiqrock XaiQ

    OK...Dude...chill :p:
    Thnx ny ways
    bk 2 topic..
    more comments:p:
    @spy: thnx dude for reps;) :rock:

Share This Page