Saawariya - Chord and Lead

Discussion in 'Hindi Guitar Tabs - Submit or Request' started by taquila, Oct 6, 2007.

  1. taquila

    taquila New Member

    Ok here is the final chord, and lead in the next post below.;)

    A
    sawariyya..
    F#m
    sawariyya..
    Bm
    sawariyya..
    A
    Sawariyaa..
    D---A
    Doli mey bithake
    D-----A
    sitaro se sajake
    D
    jamane se churake
    Bm
    le jayega
    A------------F#m---------Bm-----------A
    sawariyya.. sawariyya.. sawariyya.. sawariyya..




    D-----A
    Doli mey bithake
    A
    sitaro se sajake
    D-------A
    jamane se churake
    Bm------------------------E
    le jayega ek roj tera udake jiya
    Sawariya.. sawariyya.. sawariyya..

    A---------F#m
    Palko ke shamiyaane mein
    Bm--------A
    khabon ke har thikane mein
    A#------------D
    teri hi parchayeeaa..
    A#--------------A
    tu to har lamha yaadon mein hai
    Bm---------------------------D---------E
    teri khamosh paheli najar ka diwaana bona..


    @visit my blog at http://blutopian.blogspot.com for more Saawariya songs and chords@
     
  2. taquila

    taquila New Member

    Starting riff...

    e---------------------------------------------------
    B-----------------6-5----------------------6--5--
    G-------5-----5-----------5----------5-----5--------
    D--5h-7----5--------------------5h-7----5----------
    A---------------------------------------------------
    E---------------------------------------------------



    @visit my blog at http://blutopian.blogspot.com for more Saawariya songs and chords@
     
  3. sukrut

    sukrut God Guitarist

    good work......... tried the chords they match.......

    :rock:
    tryin the lead........
     
  4. taquila

    taquila New Member

    Thanks Sukrut. Let me know your feedback on the lead.. I will post the other lead part based on the feed back from IGTians ;)
     
  5. rizz420

    rizz420 WoRsT DrEaMs R MaDe Of Me

    gud work in chord section ...bt im little bit confused abt intro ...
     
  6. taquila

    taquila New Member

    rizz, I think the intro will be less confusing if you can hear it first in the actual song and then try to practice it with the lead given.. because the timing is quite difficult to adjust by simply trying to play it from the given lead... and wrong timing can actually change the tune..:p:
     
  7. krishnaG

    krishnaG New Member

    hi taquila....nice chords and lead...i tried playing teh lead along with the chords but they are not in sync.....
    for the lead part you should start from 7 instead of 5...

    i.e

    e---------------------------------------------------
    B-----------------8-7----------------------8--7--
    G-------7-----7-----------7----------7-----7--------
    D--7h-9----7--------------------7h-9----7----------
    A---------------------------------------------------
    E---------------------------------------------------
     
  8. Subodh.143

    Subodh.143 New Member

    thnx guys>>>>>>>>>>>>>>>>>>>>>
     
  9. akshay_SAXENA

    akshay_SAXENA New Member

    Intro

    i suppose the leads like this...
    e------------------------------------------------------
    B-----------------4-3-------------------------4--3----
    G-------3-----3-----------3----------3-----3---------3--
    D--3h-5----3--------------------3h-5----3---------------
    A-------------------------------------------------------
    E--------------------------------------------------------

    :))
     
  10. stonecoldcrazy

    stonecoldcrazy New Member

    hi im a beginner and i tried it this way (plzz excuse im bad at tabbin )

    E/-------------------------------------------------------------------------
    B/---------------3---2-------------------3---2-----------------------------
    G/-----2---------------2-----2---------------------------------------------
    D/-2-4---2---------------2-4---2-------------------------------------------
    A/-----------4-----------------------4--------------------------------------
    E/-------------------------------------------------------------------------
     
  11. stonecoldcrazy

    stonecoldcrazy New Member

    tried the lead again excuse for bad tabbin

    E/-------------------------------------------------------------------------
    B/--------------5---3-2-------------------------7---5h7-5-5-5---3h5-5-----
    G/-----2-4-4s6----------4-4s6-2-------2-4-4s7------------------------------
    D/-2-4-----------------------------2-4-------------------------------------
    A/-------------------------------------------------------------------------
    E/-------------------------------------------------------------------------
     
  12. chatty_arko

    chatty_arko New Member

    g8 chords i must say u really rock.
    i tried finding d chords bt nvr got in d flow of d song bt after seeing ur chords i tried playin it and it reallly rocks.
    thanks a ton
     
  13. Bandbaaja

    Bandbaaja Pronounced Band Baaaa Ja

    This is how I play the intro

    E----------------------------
    B----------------------------
    G----------------6/7--6------
    D-------7----------------7---
    A--7/9-----0--7--------------
    E----------------------------

    E----------------------------
    B----------------------------
    G----------------6/7--6------
    D-------7--------------------
    A--7/9-----0--7--------------
    E----------------------------
     
  14. stonecoldcrazy

    stonecoldcrazy New Member




    did any 1 try this \
    plzz let me know hows it
     
  15. krishnaG

    krishnaG New Member

    hi all...i have recorded this song...and also posted the tabs in this thread...may be you can cross check it...

    here is the link:

    www.soundclick.com/krishnasg

    regards,
    krishna
     
  16. sukrut

    sukrut God Guitarist

    Bandbaaja is pretty close......... his is the closest........


    how about this........



    E----------------------------
    B---------------3-2----------
    G------2-----2---------------
    D--2/4----2------------------
    A----------------------------
    E----------------------------

    E----------------------------
    B--------------3--2----------
    G------2----2--------2-------
    D--2/4----2------------------
    A----------------------------
    E----------------------------






    :rockon:
     
  17. Bandbaaja

    Bandbaaja Pronounced Band Baaaa Ja

    the 5th A string open is the 3rd note distinctly

    so its
    1. E slide to F#
    (either on 4th string slide from fret 2 to fret 4 or like how i play it is 5th string slide from fret 7 to fret 9)

    2. high A (on either 3rd string 2nd fret or like how i play on 4th string 7th fret)

    3. then its the lowest A that is the 5th string open

    4. then the same E as the start

    5. then slide C# to D and back to C# (either on 2nd string fret 2/3 2 or like how i play it is 3rd string slide from 6/7 6

    6. last note is A on either 3rd string 2nd fret or 4th string 7th fret
     
  18. jay4chords

    jay4chords New Member

    nice chords
    thanx
     
  19. Nytefyre

    Nytefyre New Member

    hi guys,
    iam a beginner....and i needed some help with the strumming pattern for this song. can someone hlp me plz?
     
  20. HAPPY_ROTTER

    HAPPY_ROTTER New Member

    hi nytefyre
    it is dduudd 4 saawariyaaaa........ & Dduudu 4 the rest

    :cool:

    enjoy
    thanx
     

Share This Page