Saawaria chords + intro.....

Discussion in 'Hindi Guitar Tabs - Submit or Request' started by coolzmikey, Feb 6, 2008.

  1. coolzmikey

    coolzmikey New Member

    Hello...... :) ppl hope u must have heard the song saawaria .. !! m givin ya da tabs of da intro of da song.. which i wrote here.... !

    <-SAAWARIA->


    ***
    ____________________________________
    Use F#m9 and Bm9 to get the Flavour
    ____________________________________

    ***

    The startin goes like !! --->

    E-------------------------------------------------------
    B-----------------3---2---------------3---2-------------
    G-----------2--------------------2----------------------(Continue it)
    D-------2h4----2-------------2h4---2-------------------
    A----0---------------------0----------------------------
    E--------------------------------------------------------


    Strummin is simply basic one-



    Amaj ----------------F#m --------------------Bm---------E------A

    Saawariya haa haa Saawariya haa haa haa Saawariya hooo Saawariya



    A-----------D-------A-----------D------F#m-----------------Bm-------

    Doli mein bitha ke Sitaro se sajake Zamane se churake Lejayega ek

    ---------------E
    roz tera udaa ke jiya



    Amaj------------------ F#m9 --------------------Bm9
    Saawariya haa haaaa Saawariya haa haa haa Saawariya hooo

    E-------A
    Saawariya owwwowoww


    Repeat it back__________ and strum it correctly_____


    ---------------------------------------------------------------------------_


    Amaj---------F#m----------------Bm------------A----E------A
    Palkon ke shamiyane mein Khwaabon ke har thikane mein

    A#----------------------(continue it)--- A
    Teri hi parchaiya hai Tu to har lambha Yaadon mein hai

    Bm-------------------------Emaj
    Teri khamosh pheli nazar ka deewana bana


    Amaj-----------------F#m9------------------Bm9----------E-----A
    Saawariya haa haaaa Saawariya haa haa haa Saawariya hooo Saawariya



    ___________



    ____________________________________
    Use F#m9 and Bm9 to get the Flavour
    _____________________________________

    .. !! alas ur perception is da best than any one's.. !!
     

Share This Page