Saagar jaise ankhonwali---lead and chords

Discussion in 'Hindi Guitar Tabs - Submit or Request' started by lalbamboo, May 27, 2004.

  1. lalbamboo

    lalbamboo New Member

    A major Dm
    E---||--0--0-----------0--------0--1--0h1p0--1--------------------------
    B---||--2-----2-----2-----2--3---------------3--3--1--0-----------------
    G---||--2--------2---------------------------2-----------2--1h2--1------
    D---||--2------------------------------------0--------------------------
    A---||--0------------------------------------0--------------------------
    E---||--0------------------------------------x--------------------------


    E major Am t
    E---0-----------------------0--|--12--------------12--------------12----
    B---0-----------1--3--1-----1--|------13--12----------13--12------------
    G---1--1--2--4-----------4--2--|--------------14--------------14--------
    D---2-----------------------2--|----------------------------------------
    A---2-----------------------0--|----------------------------------------
    E---0-----------------------0--|----------------------------------------


    E major
    E-------------------------------12~~~--|--0-----------------------------
    B---13--12------12--13--15--16---------|--0--t--------------------------
    G-----------14-------------------------|--1--1--2--4--2--1--------------
    D--------------------------------------|--2-----------------3--2--0-----
    A--------------------------------------|--2-----------------------------
    E--------------------------------------|--0-----------------------------



    E------------------------|----------------------------------------------
    B------------------------|----------------------------------------------
    G---------1--2/4/5/7/13--|-----1--------1--------1--------1--------1----
    D---2--3-----------------|--3-----3--2-----2--3-----3--2-----2--3-------
    A------------------------|----------------------------------------------
    E------------------------|----------------------------------------------


    Am9
    E------------------------------------0--||------------------------------
    B------------------------------------0--||------------------------------
    G---------1--------1--------1--------2--||------------------------------
    D---3--2-----2--0-----0--------0-----2--||------------------------------
    A------------------------3--------2--0--||------------------------------
    E------------------------------------0--||------------------------------


    The chords for the song are something like this...


    Am E
    Chehra hai ya chaand khila hai
    Am G
    zulfe ghaneri shaam hai kya
    C
    saagar jaisi aankhowali
    Am
    ye to bata tera naam hai kya


    Am G
    Are tu kya jaane teri khaatir
    C Am
    kitna hai betaab ye dil
    Am G
    tu kya jaane dekh raha hai
    C Am
    kaise kaise khwab ye dil
    Am
    Dil kehta hai tu hai yahan to
    G
    jaata lamha tham jaye
    A D
    Waqt ka dariya behte behte
    G Am
    is manzar mein jam jaye
    Am E
    tune deewana dil ko banaya
    Am G
    is dil par ilzam hai kya
    C
    saagar jaisi aankhowali
    Am
    ye to bata tera naam hai kya
     
  2. Rohan

    Rohan New Member

    Gr8 Work Man I Play It The Same Way.
     
  3. virat_123

    virat_123 New Member

    sir u r genius ....
     
  4. sarang_cool

    sarang_cool New Member

    looks too good! coz I play the same way :p: reps for u
     
  5. virat_123

    virat_123 New Member

    sir u r really genius,......
    this is the most beautiful lead in the world.......
    how u tabbed???????????????
    really amazing.....100% sounds like that......
     
  6. anshphenomenon

    anshphenomenon Rape me :boff:

    good chords...
     
  7. Bandbaaja

    Bandbaaja Pronounced Band Baaaa Ja

    i thought this was posted before ?
     
  8. 6ixstringjunkie

    6ixstringjunkie New Member

    too good man awesome
     
  9. rickkky_rich

    rickkky_rich Banned

    amazin stuff dude.... gr8 job
     
  10. tablakabla

    tablakabla New Member

    gr8 work boss
     

Share This Page