ronan keating - when u say nuthin at all

Discussion in 'English Guitar Tabs - Submit or Request' started by Yuna, Jan 7, 2005.

  1. Yuna

    Yuna New Member

    ---------------2-3--------0-----------2h3-------------------------------------
    ------3--------------------1-------3------------------------------------------
    ----0---0---2----------0--------2--------------------------------------------- x6
    ----------0-------------------0-----------------------------------------------
    --------------------3---------------------------------------------------------
    -3----------------------------------------------------------------------------

    -----------0---------0------------2-------------------------------------------
    --------1--------1--------3---3-------3---------------------------------------
    -----0--------0---------2---2-------2---2-------------------------------------
    ------------------------------------------------------------------------------
    --3---------------------------------------------------------------------------
    ------------------------------------------------------------------------------

    ---------------2-3---------0------------------2-------------------------------
    ------3----------------------1-----3------3-------3---------------------------
    ----0---0---2----------0--------2-----2---------2----2------------------------
    ----------0--------------------0----------------------------------------------
    --------------------3---------------------------------------------------------
    -3----------------------------------------------------------------------------

    bringing out the chorus,
    -2-2-2-2-3-3-3-3--------------------------------------------------------------
    -3-3-3-3-3-3-3-3--------------------------------------------------------------
    -2-2-2-2-2-2-2-3--------------------------------------------------------------
    -0-0-0-0-0-0-0-0--------------------------------------------------------------
    -------0-0-0-0-0--------------------------------------------------------------
    -----------0-0-0--------------------------------------------------------------

    Chorus:
    struming pattern
    down down-down-up

    g d c d
    The smile on your face lets me know that you need me

    g d c d
    There's a truth in your eyes saying you'll never leave me

    g d c c d d Em D
    The touch of your hand says you'll catch me if ever I fall

    c c d(stop for 4 seccond)
    You say it best, when you say nothing at all

    ---------------2-3--------0-----------2h3-------------------------------------
    ------3--------------------1-------3------------------------------------------
    ----0---0---2----------0--------2--------------------------------------------- x3
    ----------0-------------------0-----------------------------------------------
    --------------------3---------------------------------------------------------
    -3----------------------------------------------------------------------------

    ---------------2-3--------0-----------2h3-------------------------------------
    ------0--------------------1-------3------------------------------------------
    ----0---0---2----------0--------2---------------------------------------------
    --2-------0-------------------0-----------------------------------------------
    -2------------------3---------------------------------------------------------
    ------------------------------------------------------------------------------

    -----------0---------0------------2-------------------------------------------
    --------1--------1--------3---3-------3---------------------------------------
    -----0--------0---------2---2-------2---2-------------------------------------
    ------------------------------------------------------------------------------
    --3---------------------------------------------------------------------------
    ------------------------------------------------------------------------------

    ---------------2-3---------0------------------2-------------------------------
    ------3----------------------1-----3------3-------3---------------------------
    ----0---0---2----------0--------2-----2---------2----2------------------------
    ----------0--------------------0----------------------------------------------
    --------------------3---------------------------------------------------------
    -3----------------------------------------------------------------------------


    bringing out the chorus,
    -2-2-2-2-3-3-3-3--------------------------------------------------------------
    -3-3-3-3-3-3-3-3--------------------------------------------------------------
    -2-2-2-2-2-2-2-3--------------------------------------------------------------
    -0-0-0-0-0-0-0-0--------------------------------------------------------------
    -------0-0-0-0-0--------------------------------------------------------------
    -----------0-0-0--------------------------------------------------------------

    g d c d
    The smile on your face lets me know that you need me

    g d c d
    There's a truth in your eyes saying you'll never leave me

    g d c c d d Em D
    The touch of your hand says you'll catch me if ever I fall

    c c d g d e b a b e b a b e
    You say it best, when you say nothing at all


    g d c d
    The smile on your face lets me know that you need me

    g d c d
    There's a truth in your eyes saying you'll never leave me


    ---------------2-3---------0------------------2-------------------------------
    ------3----------------------1-----3------3-------3---------------------------
    ----0---0---2----------0--------2-----2---------2----2------------------------ x1
    ----------0--------------------0----------------------------------------------
    --------------------3---------------------------------------------------------
    -3----------------------------------------------------------------------------
    The touch of your hand says you'll catch me if ever I fall
    You say it best, when you say nothing at all

    ---------------2-3--------0-----------2h3-------------------------------------
    ------3--------------------1-------3------------------------------------------
    ----0---0---2----------0--------2--------------------------------------------- x1
    ----------0-------------------0-----------------------------------------------
    --------------------3---------------------------------------------------------
    -3----------------------------------------------------------------------------
    outro:

    E B A B A - b -
    the touch on your hand... smile on your face....
     

Share This Page