ronan keating - when u say nothing at all (tabs)

Discussion in 'English Guitar Tabs - Submit or Request' started by kingofduffers, Feb 22, 2006.

  1. kingofduffers

    kingofduffers New Member

    k, here's how da main part of da song goes...:
    Intro:
    e|--------------------2--3--------------------2h3--------|
    B|--------3-----------------------3----------------------|
    G|-----0-----0-----2-----------0-----0-----2-------------|
    D|--------------0-----------------------0----------------|
    A|--------------------------3----------------------------|
    E|--3----------------------------------------------------|

    Intro 2X

    Intro with
    Its amazing how you can speak right
    To my heart
    Without saying a word,
    You can light up the dark

    Prechorus
    e|-----------0-----------------2-----------------------------------------------|
    B|--------3--------3--------3--------3--------3-----------3-----------3--------|
    G|-----0--------0--------2--------2--------0-----0-----2-----2-----0-----3-----|
    D|--------------------0-----------------------------0--------------------------|
    A|--3-----------------------------------------------------------3--------------|
    E|--------------------------------------3--------------------------------------|

    e|-----------2-----------------2-------------|
    B|--------3--------3--------3--------3-------|
    G|-----2--------2--------2--------2----------|
    D|--0-----------------0----------------------|
    A|-------------------------------------------|
    E|-------------------------------------------|

    Prechorus with
    Try as I may I can never explain
    What I hear when you don't say a thing

    Chorus
    e|--------3-----------2-----------3-----------2-------|
    B|--------3-----------3-----------3-----------3-------|
    G|-----0-----0-----2-----2-----0-----0-----2-----2----|
    D|--------------0-----------------------0-------------|
    A|--------------------------3-------------------------|
    E|--3-------------------------------------------------|

    Chorus with
    The smile on your face lets me know that
    you need me
    There's a truth in your eyes
    Saying you'll never leave me
    A touch of your hand
    Says you'll catch me where ever I fall
    e|--0--2--3--------3--2-----------|
    B|-----------0-----------3--------|
    G|--------------0-----------2-----|
    D|--------------------0-----------|
    A|--------------------------------|
    E|--------0-----------------------|

    Prechorus
    e|-----------0-----------2--------|
    B|--------3--------3----3---------|
    G|-----0--------0------2----------|
    D|--------------------0-----------|
    A|--3-----------------------------|
    E|--------------------------------|

    Prechorus with
    You say it best when you say
    nothing at all

    Intro 2X Alone
    e|--------------------2--3--------------------2h3--------|
    B|--------3-----------------------3----------------------|
    G|-----0-----0-----2-----------0-----0-----2-------------|
    D|--------------0-----------------------0----------------|
    A|--------------------------3----------------------------|
    E|--3----------------------------------------------------|

    lissen to the song carefully for the timing and picking, it sounds about right, lemme know wht u think...
     
  2. lprassanth

    lprassanth New Member

    this is what u posted:

    Intro:
    e|--------------------2--3--------------------2h3--------|
    B|--------3-----------------------3----------------------|
    G|-----0-----0-----2-----------0-----0-----2-------------|
    D|--------------0-----------------------0----------------|
    A|--------------------------3----------------------------|
    E|--3----------------------------------------------------|


    think there solud be a correction as follows

    Intro:
    e|--------------------2--3----------------------2h3--------|
    B|--------3-----------------------3-----------3-----------|
    G|-----0-----0-----2-----------0-----0-----2-------------|
    D|--------------0-----------------------0----------------|
    A|--------------------------3----------------------------|
    E|--3----------------------------------------------------|
     

Share This Page