Roja Jaaneman Paradigm Shift Cover Tab

Discussion in 'Hindi Guitar Tabs - Submit or Request' started by d_ist_urb_ed, Jul 23, 2012.

  1. d_ist_urb_ed

    d_ist_urb_ed Genuflect b*tches!

    This is my own rendition of the Roja Jaaneman cover that Paradigm Shift did at blue frog. I just tabbed out the basic melody because I've been getting so many messages on youtube asking for the tab. I transposed this by ear and you should too! But I thought this would give you a nice starting point to figure out the rest of the song. In the sixth section of this tab, I played the "Roja jaaneman, tu hi mera dil, tujh bin tarse" part differently in the video. In this tab I added slides instead of flat notes because it gives a more authentic feel I think. Here's the video for reference and the tab directly below. Cheers.

    http://www.youtube.com/watch?v=s8o_i2soPSw

    Roja Jaaneman - Paradigm Shift version Tab
    / = Slide h = Hammer on


    e---------------------------------------------------------------------------------------------|
    B--9/10/9/10/9/10/7h9--7--5/4--0--5---7-----------9/10/9/10/9/10/7h9--7--5/4--0--5--0---7--|


    e-----------12--------------------------------- |
    B--9-10-12-----12-12---10-9--7-9-10-9-10-9-7-|


    e--------7-------7-9------------------------| (Repeat twice)
    B---5-7--------------10-----10/9--7h9--5---|

    e------------11-12--12-12---------11-12-14-10---9------ | (Repeat twice)
    B---------12-------------------12---------------------12 |
    G--10-14------------------------------------------------ |

    e-------7-9---------------------------------| (Repeat twice)
    B-7-10-----10---10/9--7-8--7h8/5-4-5--|

    e-----------------------------------------------------------------------| (Repeat twice)
    B--/5-8-7-5-4-----/5-8-5/8/7/5/4---5-5/9-----------9-10/12/10--8/7-7--|
    G-------------------------------------------------9---------------------|

    e--------------------------------------| (Repeat twice)
    B--9-9-10-8-7---9-9-10/12/10-8-7|

    e-------------------------------------------|
    B--5-7-8-7-5----10-12-13-12-10---13/19~~|
     
  2. massstacks

    massstacks New Member

Share This Page