Rock On - Rock On!!!

Discussion in 'Hindi Guitar Tabs - Submit or Request' started by rondude3011, Aug 20, 2009.

  1. rondude3011

    rondude3011 New Member

    rock on - title track
    chords used -->

    ---G5---
    e|------
    B|------
    G|------
    D|---5--
    A|---5--
    E|---3--

    ---A5---
    e|------
    B|------
    G|------
    D|--7---
    A|--7---
    E|--5---


    ----C5--
    e|-----
    B|-----
    G|--5--
    D|--5--
    A|--3--
    E|-----

    --D5---
    e|------
    B|------
    G|--7---
    D|--7---
    A|--5---
    E|------



    ------INTRO------

    E---x-x----x------x-x--x--x---
    B---x-x----x------x-x--x--x---
    G---x-x----x------x-x--x--7---
    D---7-7--7s8-pm-x-x--5--7---
    A---7-7--7s8-pm-x-x--5--5---
    E---5-5--5s6-pm-x-x--3--x---

    A5-------------------------D5-------G5----
    Dil kya karta hai mera kya main bataaon
    A5----------------------------C5-------G5-----
    Tume yeh samjhoge shaayad main paagal hoon.

    Riff played 4 times.

    A5-------------------------D5-------G5----
    Dil kya karta hai mera kya main bataaon
    A5----------------------------C5-------G5-----
    Tume yeh samjhoge shaayad main paagal hoon.
    A5------------------------D5-------G5----
    Dil karta hai tv tower pe main chad jaoon
    A5-----------------------C5-------G5-----
    Chilla chilla ke main ye sabse keh doon.

    A5---------
    Rock ON
    ---------D5------G5----------
    Hai yeh waqt ka ishaara
    A5---------
    Rock On
    -----C5-------G5---------
    Harlamha Pukaa-ra
    A5--------
    Rock On
    ----------D5--------G5-----------
    Yuheen Dekhta hai kya tu
    A5-------
    Rock On
    -----C5-------------F5---------------------
    Zindagi milegi na dubaraaa........

    Riff played 4 times

    Please Comment and Rate ---
     
  2. charm always

    charm always New Member

    Can u plz give me d strummin pattern of it .........plzzzzzzzzz
     
  3. deep09

    deep09 New Member

    hello to all friends ...

    please tell me about [gb & a] guitar...

    what is the price??

    i just want to buy it..

    i am bigener..please help me dear....

    how is its music, good or bad??

    gb & a is success or not????
     
  4. deep09

    deep09 New Member

    please dear friends

    what about hobner guitar.......???
     
  5. rondude3011

    rondude3011 New Member

    its just simple up n dwn motion... nt any spcl kind of strummin required fr dis dong
     
  6. 5700freak

    5700freak New Member

    dude can any1 gimme the lead part in this song!!!!!!!!!!!!!!!!111
     

Share This Page