Rock On - Complete Chords + Solo

Discussion in 'Hindi Guitar Tabs - Submit or Request' started by Bandbaaja, Dec 31, 2008.

  1. Bandbaaja

    Bandbaaja Pronounced Band Baaaa Ja

    ROCK ON

    MAIN RIFF

    E ---------------
    B ---------------
    G --2-2-2s3--0---
    D --2-2-2s3--0---
    A -------------3-
    E ---------------

    [VERSE]

    REPEAT MAIN RIFF AND SILENCE BETWEEN THE MAIN VERSE LINES
    (Listen to the song for this)

    Dil Kya Kehta Hai Mera
    Kya Main Bataoon
    Tum Ye Samjhoge
    Shayad Main Pagal Hoon

    Dil Kya Kehta Hai Mera
    Kya Main Bataoon
    Tum Ye Samjhoge
    Shayad Main Pagal Hoon

    Dil Karta Hai
    TV Tower Pe
    Main Chadd Jaoon
    Chilla Chilla Ke
    Main Ye Sabse Kehdoon

    [CHORUS]
    A...............G..............
    Rock On… Hai Ye Waqt Ka Ishaara

    D/F#............F..............
    Rock On… Har Lamha Pukaara

    A...............G..............
    Rock On….Yuhin Dekhta Hai Kya Tu

    D/F#..........F..............play riff here
    Rock On….Zindagi Millegi Na Dobaara

    [REPEAT VERSE PATTERNS]

    Dil Karta Hai
    Sadkon Par Zor Se Gaoon
    Sab Apne Apne Ghar Ki
    Khidki Kholen
    Phir Main Aise Josheelay
    Geet Sunaoon
    Mere Geeton Ko Sunke Sab Ye Bolen

    [CHORUS]

    Rock On… Hai Ye Waqt Ka Ishaara
    Rock On… Har Lamha Pukaara
    Rock On….Yuhin Dekhta Hai Kya Tu
    Rock On….Zindagi Millegi Na Dobaara

    [SOLO]

    / means SLIDE THE NOTE
    p means PULL OFF THE NOTE
    b means BEND THE NOTE

    LINE 1

    E ------------------------------------------------------
    B ------------------------------------------------------
    G ------------------------------------------------------
    D ------------------------------------------------------
    A ---------3-3-------------------------3-3-------------
    E -2-3-5-5-----5-3-0-3-5---3-0-2-3-5-5-----5-3-0-3-5-5-

    LINE 2

    E ----------------------------------------
    B ----------------------------------------
    G ----------------------------------------
    D ---------5-7p5---5--7p5---5-7p5---------
    A ---3-5/7-------7--------7-------5/7-5/3-
    E -5--------------------------------------

    LINE 3 (same as LINE 2)

    E ----------------------------------------
    B ----------------------------------------
    G ----------------------------------------
    D ---------5-7p5---5--7p5---5-7p5---------
    A ---3-5/7-------7--------7-------5/7-5/3-
    E -5--------------------------------------

    LINE 4

    E ------------------------------------------
    B ------------------------------------------
    G ---------5--------------------5-----------
    D -----5-7---7p5---7-5--7p5---5---7p5---5-7-
    A -5/7-----------7----------7---------7-----
    E ------------------------------------------

    LINE 5

    E -----5-----------------------------------
    B -8b9---8-5---5---------------------------
    G -----------7---8-7-5---5-7b8-7-5-----5---
    D ---------------------7-----------7-5---7-
    A -----------------------------------------
    E -----------------------------------------

    LINE 6

    E --------------------------------------
    B -7b8--5-------------7b8--5------------
    G -7b8----------------7b8---------------
    D --------7-5---5-7-----------7-5---5-7-
    A ------------7-------------------7-----
    E --------------------------------------

    LINE 7

    E ---------------------------------------------------------------
    B ---------------------------------------------------------------
    G -7b8-7-5---5-7-5---5-------------------------------------------
    D ---------7-------7---7-5---5-7-5---5--------5/7(sustain)-7-5-4-
    A -------------------------7-------7----7-5-3--------------------
    E ---------------------------------------------------------------

    [BRIDGE]
    D..........F.........D/F#......G........
    ..Jaise Jeene Ko Dil Chahe Jee Waise Tu

    D..........F.........D/F#.....GGGGGGGGGGGGGGGGGGGGGGGGGGGGGGGGGGGGGGGGG
    ..Meri To Hai Bas Ye Raaye Ki Apne Jitne Bhi Armaan Hain Poore Karle Tu

    [REPEAT RIFF & THEN CHORUS TWICE]

    CREDITS:
    Ehsaan for the accurate chords and positions
    Anurag for the solo positions

     
  2. Bandbaaja

    Bandbaaja Pronounced Band Baaaa Ja

    The D/F# chord means D chord with F# on bass.
    It is simply the D chord but use your thumb to play 2nd fret on thick E string (the F# note)

    Cheers
     
  3. lalit_rocks

    lalit_rocks New Member

    Perfect chords and solo Poopsie
    Are u performing with SEL nowadays???????..........and Happy new year
     
  4. distorted

    distorted satan

    Gr8 work man... Cheers... Happy new year...
     
  5. musicaa

    musicaa New Member

    Good work bro thanks
     
  6. Bandbaaja

    Bandbaaja Pronounced Band Baaaa Ja

    no I don't :) (sigh) would have loved to, but my day job keeps me away from giving permanent commitments to professional bands and I really am not all that good a player :) so I want to start learning properly now and more importantly sit and PRACTICE!!! for longer hours then maybe someday i will decide to quit job and only do music :)
     
  7. lalit_rocks

    lalit_rocks New Member

    @ Band baaja
    Plz never leave this site coz...I'm playing guitar for 6 months and u dont know how much u helped me....thanx alot
     
  8. Bandbaaja

    Bandbaaja Pronounced Band Baaaa Ja

    dont worry man i wont quit this site
     
  9. vishnu_2007

    vishnu_2007 New Member

    hey bandbaja...y dont u try to record a performance using these tabs....i want to see how you play it as i am nt sure about the solo....please do tell me if you can post a video on youtube? like a tutorial video?
     
  10. Bandbaaja

    Bandbaaja Pronounced Band Baaaa Ja

    i'll post video of rock on very soon, for sure
     
  11. Sash

    Sash New Member

    Its been a while since I saw Bandbaajaa's posts. Great to see you back in action on this site:)
     
  12. Bandbaaja

    Bandbaaja Pronounced Band Baaaa Ja

    ;) cheers and thanks buddy
     
  13. tez

    tez New Member

    thanks "Bandbaaja" ... for chords and tabs ...

    and we are waiting for your video .... :)
     
  14. Bandbaaja

    Bandbaaja Pronounced Band Baaaa Ja

    Video i forgot, will add soon
    Thanks guys :)
    Practice makes perfect!!!
     
  15. BluffMaster007

    BluffMaster007 New Member

    Waiting for the video dude..

    thnx
     
  16. jimihndrx

    jimihndrx Guitar Hero


    Intro Riff- (A5)..(A5)..(A5)..(A#5)..(G5)..(C5)

    Verses are all A5 chord

    Chorus:
    (A)Rock On..hai ye (G)waqt ka ishaara
    (D/F#)Rock On..har lam(F)ha pukara

    (A)Rock On..yuhin (G)dekhta hai kya tu
    (D/F#)Rock On..zinda(F)gi milegi na doba(A)raaa...(Riff)

    Bridge:
    (D)Jaise jee(F)ne ko dil (D/F#)chahe jee (G)waise tu
    (D)meri toh (F)hai bas ye (D/F#)raaye ki (G)apne jitne bhi armaan hain poore karle tu

    TEAM jimihndrx
     
    Last edited: Feb 27, 2017
  17. sanjeevbabu

    sanjeevbabu Member

Share This Page