Rhythm of Aadat

Discussion in 'Pakistani Guitar Tabs - Submit or Request' started by Daniyal, Aug 3, 2004.

  1. Daniyal

    Daniyal New Member

    Please tell me Intro..
    |---------------------------------------|
    |---------4-----4-----4-----4-----4-----|
    |-----6-----6-----6-----6-----6-----6---|
    |---6---6-----6-----6-----6-----6-------|
    |-4-------------------------------------|
    |---------------------------------------|

    What should I do with it .Should I Play it 1 by 1 or altogether and how many times/










    Intro contd
    |-----------------------------------------------------------------4--|
    |---------5-----5-----5-----5-----5------Repeated few times-------4--|
    |-----6-----6-----6-----6-----6-----6-------------------------6---6--|
    |---6---6-----6-----6-----6-----6---------------------------6---6-6--|
    |-4-------------------------------------------------------4-------4--|
    |--------------------------------------------------------------------|

    Than about this

    Rhythm Riff
    |-4-x-4-x-4---------------|
    |-4-x-5-x-5------5-5-x-5--| Repeat Twice.
    |-6-x-6-x-6------6-6-x-6--|
    |-6-x-6-x-6----7----------|
    |-4-x-2-x-2---------------|
    |-------------------------|

    What r these *
    of Should i play it 1 by 1 and how
    1st Lead part
    |----------------------------------------|
    |-------5-----------5-----------5-----5--|
    |---6-----6-----6-----6-----4-----4---4--|
    |-6---6-----6-6---6-----6-4---4-----4----|
    |----------------------------------------|
    |----------------------------------------|

    Chords for the Verse.. Same chords are used thruout the song...Note: C#sus2 [x46644]

    Door [C#sus2]Jitna [C#m]bhi Tum Mujh say pass [A]teray main..
    Abto [C#sus2]Adat [C#m]si hai Mujh ko aisay [A]jeenay main..

    2nd Lead Part
    |-------4-----7-----4-------------------------------|
    |---5-----5-----5-----5----------7-----9-----7------|
    |-6---6-----6-----6-----6----6-----6-----6-----6----| Repeat Twice.
    |--------------------------7---7-----7-----7-----7--|
    |---------------------------------------------------|
    |---------------------------------------------------|

    THE SOLO:
    |-4-5-4-44-4--------------------------------------------------|
    |----------------7-5-4-44-4--4-5-4---2-4-5--5h6p5-5-4-|
    |----------------------------------------------------------------|
    |----------------------------------------------------------------|
    |----------------------------------------------------------------|
    |----------------------------------------------------------------|

    |-4-5-4-44-7-9-7-7s9--7--5-5-5-5h7-5--4--4s2-2----|
    |---------------------------------------------------------------|
    |---------------------------------------------------------------|
    |---------------------------------------------------------------|
    |---------------------------------------------------------------|
    |---------------------------------------------------------------|

    Arpeggio part for the acoustic solo & then Ending of song...
    |-------4------------5------------7------|
    |-------4------------5------------7------|
    |-----6---6--------6---6--------8---8----|
    |---6-------6----7-------7----9-------9--|
    |-4------------7------------9------------|
    |----------------------------------------|
    __________________
     
  2. Quadrophenia

    Quadrophenia New Member

    Please tell me Intro..
    |---------------------------------------|
    |---------4-----4-----4-----4-----4-----|
    |-----6-----6-----6-----6-----6-----6---|
    |---6---6-----6-----6-----6-----6-------|
    |-4-------------------------------------|
    |---------------------------------------|

    What should I do with it .Should I Play it 1 by 1 or altogether and how many times

    hey there..dude..seems like u're quite lost..what hes doing is holding down the c#sus2( somebody please correct me if i've got this rong!!) chord which is 446644 so u're barring the fourth frets with your index finger and holding down the the two middle strings of the guitar with your ring and little finger....

    now hes picking the notes..u can do it using a plectrum or your fingers..i use a plectrum....hes picking each note nsync with the rhythm..listen to the audio to get the feel of the song..and listen how many times hes playing it...:p no other way out ;)
     
  3. alwz complicatd

    alwz complicatd New Member

    hey what should i do with the rythm.i had played the first part i mean starting but what should i do with the rhythm.someone plz tell me in detail.
    REGARDS
     
  4. alwz complicatd

    alwz complicatd New Member

    Hey Danial seems ur not concentrating on that
    first try to play slowly
    put ur index finger on the 4th fret 5th string (let it be #1)
    put ur middle finger on the 6th fret 4th string (let it be #2)
    put ur ring finger on the 6th fret 3rd string (let it be #3)
    Now using ur pick first play #1 THEN #2 THEN #3 THEN #2 again
    now remove ur index finger from the 5th string and place in on the 2nd string 4th fret (let it be #4)
    [note:u have to do this in hurry but first try it slowly]
    now play #4 THEN #3 THEN #2
    again play the same i.e play #4 THEN #3 THEN #2 play it 4 times
    first try this then ill show u what is onwards
    this is the easiest way one can teach the leads to someone.if u can not even understand this,then u have to start from the begining
     
  5. alwz complicatd

    alwz complicatd New Member




    Hey Danial seems ur not concentrating on that
    first try to play slowly
    put ur index finger on the 4th fret 5th string (let it be #1)
    put ur middle finger on the 6th fret 4th string (let it be #2)
    put ur ring finger on the 6th fret 3rd string (let it be #3)
    Now using ur pick first play #1 THEN #2 THEN #3 THEN #2 again
    now remove ur index finger from the 5th string and place in on the 2nd string 4th fret (let it be #4)
    [note:u have to do this in hurry but first try it slowly]
    now play #4 THEN #3 THEN #2
    again play the same i.e play #4 THEN #3 THEN #2 play it 4 times
    first try this then ill show u what is onwards
    this is the easiest way one can teach the leads to someone.if u can not even understand this,then u have to start from the begining
     

Share This Page